  0
SECTION
  2
HEADER
  9
$ACADVER
  1
AC1024
  9
$ACADMAINTVER
 70
     6
  9
$DWGCODEPAGE
  3
ANSI_1252
  9
$INSBASE
 10
0.0
 20
0.0
 30
0.0
  9
$EXTMIN
 10
-0.0000000000001137
 20
0.0
 30
-0.25
  9
$EXTMAX
 10
419.9999999999999
 20
594.0
 30
0.25
  9
$LIMMIN
 10
0.0
 20
0.0
  9
$LIMMAX
 10
0.0
 20
0.0
  9
$ORTHOMODE
 70
     1
  9
$REGENMODE
 70
     1
  9
$FILLMODE
 70
     1
  9
$QTEXTMODE
 70
     0
  9
$MIRRTEXT
 70
     1
  9
$LTSCALE
 40
1.0
  9
$ATTMODE
 70
     1
  9
$TEXTSIZE
 40
2.5
  9
$TRACEWID
 40
0.05
  9
$TEXTSTYLE
  7
Standard
  9
$CLAYER
  8
0
  9
$CELTYPE
  6
ByLayer
  9
$CECOLOR
 62
   178
  9
$CELTSCALE
 40
1.0
  9
$DISPSILH
 70
     0
  9
$DIMSCALE
 40
1.0
  9
$DIMASZ
 40
4.0
  9
$DIMEXO
 40
0.75
  9
$DIMDLI
 40
0.38
  9
$DIMRND
 40
0.0
  9
$DIMDLE
 40
0.0
  9
$DIMEXE
 40
1.5
  9
$DIMTP
 40
0.0
  9
$DIMTM
 40
0.0
  9
$DIMTXT
 40
3.0
  9
$DIMCEN
 40
0.09
  9
$DIMTSZ
 40
0.0
  9
$DIMTOL
 70
     0
  9
$DIMLIM
 70
     0
  9
$DIMTIH
 70
     0
  9
$DIMTOH
 70
     0
  9
$DIMSE1
 70
     0
  9
$DIMSE2
 70
     0
  9
$DIMTAD
 70
     1
  9
$DIMZIN
 70
     0
  9
$DIMBLK
  1

  9
$DIMASO
 70
     1
  9
$DIMSHO
 70
     1
  9
$DIMPOST
  1

  9
$DIMAPOST
  1

  9
$DIMALT
 70
     0
  9
$DIMALTD
 70
     2
  9
$DIMALTF
 40
25.4
  9
$DIMLFAC
 40
0.5
  9
$DIMTOFL
 70
     1
  9
$DIMTVP
 40
0.0
  9
$DIMTIX
 70
     1
  9
$DIMSOXD
 70
     0
  9
$DIMSAH
 70
     0
  9
$DIMBLK1
  1

  9
$DIMBLK2
  1

  9
$DIMSTYLE
  2
Standard
  9
$DIMCLRD
 70
   178
  9
$DIMCLRE
 70
   178
  9
$DIMCLRT
 70
   178
  9
$DIMTFAC
 40
1.0
  9
$DIMGAP
 40
0.75
  9
$DIMJUST
 70
     0
  9
$DIMSD1
 70
     0
  9
$DIMSD2
 70
     0
  9
$DIMTOLJ
 70
     1
  9
$DIMTZIN
 70
     0
  9
$DIMALTZ
 70
     0
  9
$DIMALTTZ
 70
     0
  9
$DIMUPT
 70
     1
  9
$DIMDEC
 70
     1
  9
$DIMTDEC
 70
     4
  9
$DIMALTU
 70
     2
  9
$DIMALTTD
 70
     2
  9
$DIMTXSTY
  7
Standard
  9
$DIMAUNIT
 70
     0
  9
$DIMADEC
 70
     0
  9
$DIMALTRND
 40
0.0
  9
$DIMAZIN
 70
     0
  9
$DIMDSEP
 70
    46
  9
$DIMATFIT
 70
     3
  9
$DIMFRAC
 70
     0
  9
$DIMLDRBLK
  1

  9
$DIMLUNIT
 70
     2
  9
$DIMLWD
 70
    -2
  9
$DIMLWE
 70
    -2
  9
$DIMTMOVE
 70
     0
  9
$DIMFXL
 40
1.0
  9
$DIMFXLON
 70
     0
  9
$DIMJOGANG
 40
0.7853981633974483
  9
$DIMTFILL
 70
     0
  9
$DIMTFILLCLR
 70
     0
  9
$DIMARCSYM
 70
     0
  9
$DIMLTYPE
  6

  9
$DIMLTEX1
  6

  9
$DIMLTEX2
  6

  9
$DIMTXTDIRECTION
 70
     0
  9
$LUNITS
 70
     2
  9
$LUPREC
 70
     1
  9
$SKETCHINC
 40
0.1
  9
$FILLETRAD
 40
0.5
  9
$AUNITS
 70
     0
  9
$AUPREC
 70
     0
  9
$MENU
  1
.
  9
$ELEVATION
 40
0.0
  9
$PELEVATION
 40
0.0
  9
$THICKNESS
 40
0.0
  9
$LIMCHECK
 70
     0
  9
$CHAMFERA
 40
0.5
  9
$CHAMFERB
 40
0.5
  9
$CHAMFERC
 40
1.0
  9
$CHAMFERD
 40
0.0
  9
$SKPOLY
 70
     0
  9
$TDCREATE
 40
2457288.513321759
  9
$TDUCREATE
 40
2457288.471655093
  9
$TDUPDATE
 40
2457288.513321759
  9
$TDUUPDATE
 40
2457288.471655093
  9
$TDINDWG
 40
0.0000000116
  9
$TDUSRTIMER
 40
0.0000000116
  9
$USRTIMER
 70
     1
  9
$ANGBASE
 50
0.0
  9
$ANGDIR
 70
     0
  9
$PDMODE
 70
     0
  9
$PDSIZE
 40
0.0
  9
$PLINEWID
 40
0.0
  9
$SPLFRAME
 70
     0
  9
$SPLINETYPE
 70
     6
  9
$SPLINESEGS
 70
     8
  9
$HANDSEED
  5
1442
  9
$SURFTAB1
 70
     6
  9
$SURFTAB2
 70
     6
  9
$SURFTYPE
 70
     6
  9
$SURFU
 70
     6
  9
$SURFV
 70
     6
  9
$UCSBASE
  2

  9
$UCSNAME
  2

  9
$UCSORG
 10
0.0
 20
0.0
 30
0.0
  9
$UCSXDIR
 10
1.0
 20
0.0
 30
0.0
  9
$UCSYDIR
 10
0.0
 20
1.0
 30
0.0
  9
$UCSORTHOREF
  2

  9
$UCSORTHOVIEW
 70
     0
  9
$UCSORGTOP
 10
0.0
 20
0.0
 30
0.0
  9
$UCSORGBOTTOM
 10
0.0
 20
0.0
 30
0.0
  9
$UCSORGLEFT
 10
0.0
 20
0.0
 30
0.0
  9
$UCSORGRIGHT
 10
0.0
 20
0.0
 30
0.0
  9
$UCSORGFRONT
 10
0.0
 20
0.0
 30
0.0
  9
$UCSORGBACK
 10
0.0
 20
0.0
 30
0.0
  9
$PUCSBASE
  2

  9
$PUCSNAME
  2

  9
$PUCSORG
 10
0.0
 20
0.0
 30
0.0
  9
$PUCSXDIR
 10
1.0
 20
0.0
 30
0.0
  9
$PUCSYDIR
 10
0.0
 20
1.0
 30
0.0
  9
$PUCSORTHOREF
  2

  9
$PUCSORTHOVIEW
 70
     0
  9
$PUCSORGTOP
 10
0.0
 20
0.0
 30
0.0
  9
$PUCSORGBOTTOM
 10
0.0
 20
0.0
 30
0.0
  9
$PUCSORGLEFT
 10
0.0
 20
0.0
 30
0.0
  9
$PUCSORGRIGHT
 10
0.0
 20
0.0
 30
0.0
  9
$PUCSORGFRONT
 10
0.0
 20
0.0
 30
0.0
  9
$PUCSORGBACK
 10
0.0
 20
0.0
 30
0.0
  9
$USERI1
 70
     0
  9
$USERI2
 70
     0
  9
$USERI3
 70
     0
  9
$USERI4
 70
     0
  9
$USERI5
 70
     0
  9
$USERR1
 40
0.0
  9
$USERR2
 40
0.0
  9
$USERR3
 40
0.0
  9
$USERR4
 40
0.0
  9
$USERR5
 40
0.0
  9
$WORLDVIEW
 70
     1
  9
$SHADEDGE
 70
     3
  9
$SHADEDIF
 70
    70
  9
$TILEMODE
 70
     1
  9
$MAXACTVP
 70
     2
  9
$PINSBASE
 10
-168.2483360422704
 20
387.3151499857087
 30
0.0
  9
$PLIMCHECK
 70
     0
  9
$PEXTMIN
 10
1.000000000000000E+20
 20
1.000000000000000E+20
 30
1.000000000000000E+20
  9
$PEXTMAX
 10
-1.000000000000000E+20
 20
-1.000000000000000E+20
 30
-1.000000000000000E+20
  9
$PLIMMIN
 10
0.0
 20
0.0
  9
$PLIMMAX
 10
297.0
 20
210.0
  9
$UNITMODE
 70
     0
  9
$VISRETAIN
 70
     1
  9
$PLINEGEN
 70
     0
  9
$PSLTSCALE
 70
     1
  9
$TREEDEPTH
 70
  3020
  9
$CMLSTYLE
  2
Standard
  9
$CMLJUST
 70
     0
  9
$CMLSCALE
 40
1.0
  9
$PROXYGRAPHICS
 70
     1
  9
$MEASUREMENT
 70
     1
  9
$CELWEIGHT
370
    -1
  9
$ENDCAPS
280
     0
  9
$JOINSTYLE
280
     0
  9
$LWDISPLAY
290
     0
  9
$INSUNITS
 70
     4
  9
$HYPERLINKBASE
  1

  9
$STYLESHEET
  1

  9
$XEDIT
290
     1
  9
$CEPSNTYPE
380
     0
  9
$PSTYLEMODE
290
     1
  9
$FINGERPRINTGUID
  2
{23462E84-3DEB-958F-9A25-75FF67F1D28A}
  9
$VERSIONGUID
  2
{FAEB1C32-E019-11D5-929B-00C0DF256EC4}
  9
$EXTNAMES
290
     1
  9
$PSVPSCALE
 40
0.0
  9
$OLESTARTUP
290
     0
  9
$SORTENTS
280
   127
  9
$INDEXCTL
280
     0
  9
$HIDETEXT
280
     1
  9
$XCLIPFRAME
280
     2
  9
$HALOGAP
280
     0
  9
$OBSCOLOR
 70
   257
  9
$OBSLTYPE
280
     0
  9
$INTERSECTIONDISPLAY
280
     0
  9
$INTERSECTIONCOLOR
 70
   257
  9
$DIMASSOC
280
     2
  9
$PROJECTNAME
  1

  9
$CAMERADISPLAY
290
     0
  9
$LENSLENGTH
 40
50.0
  9
$CAMERAHEIGHT
 40
0.0
  9
$STEPSPERSEC
 40
2.0
  9
$STEPSIZE
 40
6.0
  9
$3DDWFPREC
 40
2.0
  9
$PSOLWIDTH
 40
0.25
  9
$PSOLHEIGHT
 40
4.0
  9
$LOFTANG1
 40
1.570796326794897
  9
$LOFTANG2
 40
1.570796326794897
  9
$LOFTMAG1
 40
0.0
  9
$LOFTMAG2
 40
0.0
  9
$LOFTPARAM
 70
     7
  9
$LOFTNORMALS
280
     1
  9
$LATITUDE
 40
37.795
  9
$LONGITUDE
 40
-122.394
  9
$NORTHDIRECTION
 40
0.0
  9
$TIMEZONE
 70
 -8000
  9
$LIGHTGLYPHDISPLAY
280
     1
  9
$TILEMODELIGHTSYNCH
280
     1
  9
$CMATERIAL
347
1340
  9
$SOLIDHIST
280
     0
  9
$SHOWHIST
280
     1
  9
$DWFFRAME
280
     2
  9
$DGNFRAME
280
     2
  9
$REALWORLDSCALE
290
     1
  9
$INTERFERECOLOR
 62
   256
  9
$CSHADOW
280
     0
  9
$SHADOWPLANELOCATION
 40
0.0
  0
ENDSEC
  0
SECTION
  2
CLASSES
  0
CLASS
  1
ACDBDICTIONARYWDFLT
  2
AcDbDictionaryWithDefault
  3
ObjectDBX Classes
 90
        0
 91
        4
280
     0
281
     0
  0
CLASS
  1
VISUALSTYLE
  2
AcDbVisualStyle
  3
ObjectDBX Classes
 90
     4095
 91
        4
280
     0
281
     0
  0
CLASS
  1
MATERIAL
  2
AcDbMaterial
  3
ObjectDBX Classes
 90
     1153
 91
        4
280
     0
281
     0
  0
CLASS
  1
SCALE
  2
AcDbScale
  3
ObjectDBX Classes
 90
     1153
 91
        4
280
     0
281
     0
  0
CLASS
  1
TABLESTYLE
  2
AcDbTableStyle
  3
ObjectDBX Classes
 90
     4095
 91
        4
280
     0
281
     0
  0
CLASS
  1
MLEADERSTYLE
  2
AcDbMLeaderStyle
  3
ACDB_MLEADERSTYLE_CLASS
 90
     4095
 91
        4
280
     0
281
     0
  0
CLASS
  1
SUN
  2
AcDbSun
  3
SCENEOE
 90
     1153
 91
        4
280
     0
281
     0
  0
CLASS
  1
DICTIONARYVAR
  2
AcDbDictionaryVar
  3
ObjectDBX Classes
 90
        0
 91
        4
280
     0
281
     0
  0
CLASS
  1
CELLSTYLEMAP
  2
AcDbCellStyleMap
  3
ObjectDBX Classes
 90
     1152
 91
        4
280
     0
281
     0
  0
ENDSEC
  0
SECTION
  2
TABLES
  0
TABLE
  2
VPORT
  5
1305
330
0
100
AcDbSymbolTable
 70
     1
  0
VPORT
  5
1325
330
1305
100
AcDbSymbolTableRecord
100
AcDbViewportTableRecord
  2
*Active
 70
     0
 10
0.0
 20
0.0
 11
1.0
 21
1.0
 12
10.42990654205607
 22
4.5
 13
0.0
 23
0.0
 14
0.5
 24
0.5
 15
0.5
 25
0.5
 16
0.0
 26
0.0
 36
1.0
 17
0.0
 27
0.0
 37
0.0
 40
9.0
 41
1.972972972850329
 42
50.0
 43
0.0
 44
0.0
 50
0.0
 51
0.0
 71
     0
 72
   100
 73
     1
 74
     3
 75
     0
 76
     0
 77
     0
 78
     0
281
     0
 65
     1
110
0.0
120
0.0
130
0.0
111
1.0
121
0.0
131
0.0
112
0.0
122
1.0
132
0.0
 79
     0
146
0.0
 60
     3
 61
     5
292
     1
282
     1
141
0.0
142
0.0
 63
   250
361
1369
  0
ENDTAB
  0
TABLE
  2
LTYPE
  5
1302
330
0
100
AcDbSymbolTable
 70
    48
  0
LTYPE
  5
1310
330
1302
100
AcDbSymbolTableRecord
100
AcDbLinetypeTableRecord
  2
ByBlock
 70
     0
  3

 72
    65
 73
     0
 40
0.0
  0
LTYPE
  5
1311
330
1302
100
AcDbSymbolTableRecord
100
AcDbLinetypeTableRecord
  2
ByLayer
 70
     0
  3

 72
    65
 73
     0
 40
0.0
  0
LTYPE
  5
1312
330
1302
100
AcDbSymbolTableRecord
100
AcDbLinetypeTableRecord
  2
Continuous
 70
     0
  3
Solid line
 72
    65
 73
     0
 40
0.0
  0
LTYPE
  5
139D
330
1302
100
AcDbSymbolTableRecord
100
AcDbLinetypeTableRecord
  2
ACAD_ISO02W100
 70
     0
  3
ISO dash __ __ __ __ __ __ __ __ __ __ __ __ __
 72
    65
 73
     2
 40
15.0
 49
12.0
 74
     0
 49
-3.0
 74
     0
  0
LTYPE
  5
139E
330
1302
100
AcDbSymbolTableRecord
100
AcDbLinetypeTableRecord
  2
ACAD_ISO03W100
 70
     0
  3
ISO dash space __    __    __    __    __    __
 72
    65
 73
     2
 40
30.0
 49
12.0
 74
     0
 49
-18.0
 74
     0
  0
LTYPE
  5
139F
330
1302
100
AcDbSymbolTableRecord
100
AcDbLinetypeTableRecord
  2
ACAD_ISO04W100
 70
     0
  3
ISO long-dash dot ____ . ____ . ____ . ____ . _
 72
    65
 73
     4
 40
30.0
 49
24.0
 74
     0
 49
-3.0
 74
     0
 49
0.0
 74
     0
 49
-3.0
 74
     0
  0
LTYPE
  5
13A0
330
1302
100
AcDbSymbolTableRecord
100
AcDbLinetypeTableRecord
  2
ACAD_ISO05W100
 70
     0
  3
ISO long-dash double-dot ____ .. ____ .. ____ . 
 72
    65
 73
     6
 40
33.0
 49
24.0
 74
     0
 49
-3.0
 74
     0
 49
0.0
 74
     0
 49
-3.0
 74
     0
 49
0.0
 74
     0
 49
-3.0
 74
     0
  0
LTYPE
  5
13A1
330
1302
100
AcDbSymbolTableRecord
100
AcDbLinetypeTableRecord
  2
ACAD_ISO06W100
 70
     0
  3
ISO long-dash triple-dot ____ ... ____ ... ____
 72
    65
 73
     8
 40
36.0
 49
24.0
 74
     0
 49
-3.0
 74
     0
 49
0.0
 74
     0
 49
-3.0
 74
     0
 49
0.0
 74
     0
 49
-3.0
 74
     0
 49
0.0
 74
     0
 49
-3.0
 74
     0
  0
LTYPE
  5
13A2
330
1302
100
AcDbSymbolTableRecord
100
AcDbLinetypeTableRecord
  2
ACAD_ISO07W100
 70
     0
  3
ISO dot . . . . . . . . . . . . . . . . . . . . 
 72
    65
 73
     2
 40
3.0
 49
0.0
 74
     0
 49
-3.0
 74
     0
  0
LTYPE
  5
13A3
330
1302
100
AcDbSymbolTableRecord
100
AcDbLinetypeTableRecord
  2
ACAD_ISO08W100
 70
     0
  3
ISO long-dash short-dash ____ __ ____ __ ____ _
 72
    65
 73
     4
 40
36.0
 49
24.0
 74
     0
 49
-3.0
 74
     0
 49
6.0
 74
     0
 49
-3.0
 74
     0
  0
LTYPE
  5
13A4
330
1302
100
AcDbSymbolTableRecord
100
AcDbLinetypeTableRecord
  2
ACAD_ISO09W100
 70
     0
  3
ISO long-dash double-short-dash ____ __ __ ____
 72
    65
 73
     6
 40
45.0
 49
24.0
 74
     0
 49
-3.0
 74
     0
 49
6.0
 74
     0
 49
-3.0
 74
     0
 49
6.0
 74
     0
 49
-3.0
 74
     0
  0
LTYPE
  5
13A5
330
1302
100
AcDbSymbolTableRecord
100
AcDbLinetypeTableRecord
  2
ACAD_ISO10W100
 70
     0
  3
ISO dash dot __ . __ . __ . __ . __ . __ . __ . 
 72
    65
 73
     4
 40
18.0
 49
12.0
 74
     0
 49
-3.0
 74
     0
 49
0.0
 74
     0
 49
-3.0
 74
     0
  0
LTYPE
  5
13A6
330
1302
100
AcDbSymbolTableRecord
100
AcDbLinetypeTableRecord
  2
ACAD_ISO11W100
 70
     0
  3
ISO double-dash dot __ __ . __ __ . __ __ . __ _
 72
    65
 73
     6
 40
33.0
 49
12.0
 74
     0
 49
-3.0
 74
     0
 49
12.0
 74
     0
 49
-3.0
 74
     0
 49
0.0
 74
     0
 49
-3.0
 74
     0
  0
LTYPE
  5
13A7
330
1302
100
AcDbSymbolTableRecord
100
AcDbLinetypeTableRecord
  2
ACAD_ISO12W100
 70
     0
  3
ISO dash double-dot __ . . __ . . __ . . __ . . 
 72
    65
 73
     6
 40
21.0
 49
12.0
 74
     0
 49
-3.0
 74
     0
 49
0.0
 74
     0
 49
-3.0
 74
     0
 49
0.0
 74
     0
 49
-3.0
 74
     0
  0
LTYPE
  5
13A8
330
1302
100
AcDbSymbolTableRecord
100
AcDbLinetypeTableRecord
  2
ACAD_ISO13W100
 70
     0
  3
ISO double-dash double-dot __ __ . . __ __ . . _
 72
    65
 73
     8
 40
36.0
 49
12.0
 74
     0
 49
-3.0
 74
     0
 49
12.0
 74
     0
 49
-3.0
 74
     0
 49
0.0
 74
     0
 49
-3.0
 74
     0
 49
0.0
 74
     0
 49
-3.0
 74
     0
  0
LTYPE
  5
13A9
330
1302
100
AcDbSymbolTableRecord
100
AcDbLinetypeTableRecord
  2
ACAD_ISO14W100
 70
     0
  3
ISO dash triple-dot __ . . . __ . . . __ . . . _
 72
    65
 73
     8
 40
24.0
 49
12.0
 74
     0
 49
-3.0
 74
     0
 49
0.0
 74
     0
 49
-3.0
 74
     0
 49
0.0
 74
     0
 49
-3.0
 74
     0
 49
0.0
 74
     0
 49
-3.0
 74
     0
  0
LTYPE
  5
13AA
330
1302
100
AcDbSymbolTableRecord
100
AcDbLinetypeTableRecord
  2
ACAD_ISO15W100
 70
     0
  3
ISO double-dash triple-dot __ __ . . . __ __ . .
 72
    65
 73
    10
 40
39.0
 49
12.0
 74
     0
 49
-3.0
 74
     0
 49
12.0
 74
     0
 49
-3.0
 74
     0
 49
0.0
 74
     0
 49
-3.0
 74
     0
 49
0.0
 74
     0
 49
-3.0
 74
     0
 49
0.0
 74
     0
 49
-3.0
 74
     0
  0
LTYPE
  5
13AD
330
1302
100
AcDbSymbolTableRecord
100
AcDbLinetypeTableRecord
  2
BATTING
 70
     0
  3
Batting SSSSSSSSSSSSSSSSSSSSSSSSSSSSSSSSSSSSSSSSSSSSSSS
 72
    65
 73
     4
 40
10.16254
 49
0.00254
 74
     0
 49
-2.54
 74
     2
 75
     0
340
13AB
 46
2.54
 50
0.0
 44
-2.54
 45
0.0
  9
BAT
 49
-5.08
 74
     2
 75
     0
340
13AC
 46
2.54
 50
180.0
 44
2.54
 45
0.0
  9
BAT
 49
-2.54
 74
     0
  0
LTYPE
  5
13AE
330
1302
100
AcDbSymbolTableRecord
100
AcDbLinetypeTableRecord
  2
BORDER
 70
     0
  3
Border __ __ . __ __ . __ __ . __ __ . __ __ .
 72
    65
 73
     6
 40
44.45
 49
12.7
 74
     0
 49
-6.35
 74
     0
 49
12.7
 74
     0
 49
-6.35
 74
     0
 49
0.0
 74
     0
 49
-6.35
 74
     0
  0
LTYPE
  5
13AF
330
1302
100
AcDbSymbolTableRecord
100
AcDbLinetypeTableRecord
  2
BORDER2
 70
     0
  3
Border (.5x) __.__.__.__.__.__.__.__.__.__.__.
 72
    65
 73
     6
 40
22.225
 49
6.35
 74
     0
 49
-3.175
 74
     0
 49
6.35
 74
     0
 49
-3.175
 74
     0
 49
0.0
 74
     0
 49
-3.175
 74
     0
  0
LTYPE
  5
13B0
330
1302
100
AcDbSymbolTableRecord
100
AcDbLinetypeTableRecord
  2
BORDERX2
 70
     0
  3
Border (2x) ____  ____  .  ____  ____  .  ___
 72
    65
 73
     6
 40
88.89999999999999
 49
25.4
 74
     0
 49
-12.7
 74
     0
 49
25.4
 74
     0
 49
-12.7
 74
     0
 49
0.0
 74
     0
 49
-12.7
 74
     0
  0
LTYPE
  5
13B1
330
1302
100
AcDbSymbolTableRecord
100
AcDbLinetypeTableRecord
  2
CENTER
 70
     0
  3
Center ____ _ ____ _ ____ _ ____ _ ____ _ ____
 72
    65
 73
     4
 40
50.8
 49
31.75
 74
     0
 49
-6.35
 74
     0
 49
6.35
 74
     0
 49
-6.35
 74
     0
  0
LTYPE
  5
13B2
330
1302
100
AcDbSymbolTableRecord
100
AcDbLinetypeTableRecord
  2
CENTER2
 70
     0
  3
Center (.5x) ___ _ ___ _ ___ _ ___ _ ___ _ ___
 72
    65
 73
     4
 40
28.575
 49
19.05
 74
     0
 49
-3.175
 74
     0
 49
3.175
 74
     0
 49
-3.175
 74
     0
  0
LTYPE
  5
13B3
330
1302
100
AcDbSymbolTableRecord
100
AcDbLinetypeTableRecord
  2
CENTERX2
 70
     0
  3
Center (2x) ________  __  ________  __  _____
 72
    65
 73
     4
 40
101.6
 49
63.5
 74
     0
 49
-12.7
 74
     0
 49
12.7
 74
     0
 49
-12.7
 74
     0
  0
LTYPE
  5
13B4
330
1302
100
AcDbSymbolTableRecord
100
AcDbLinetypeTableRecord
  2
DASHDOT
 70
     0
  3
Dash dot __ . __ . __ . __ . __ . __ . __ . __
 72
    65
 73
     4
 40
25.4
 49
12.7
 74
     0
 49
-6.35
 74
     0
 49
0.0
 74
     0
 49
-6.35
 74
     0
  0
LTYPE
  5
13B5
330
1302
100
AcDbSymbolTableRecord
100
AcDbLinetypeTableRecord
  2
DASHDOT2
 70
     0
  3
Dash dot (.5x) _._._._._._._._._._._._._._._.
 72
    65
 73
     4
 40
12.7
 49
6.35
 74
     0
 49
-3.175
 74
     0
 49
0.0
 74
     0
 49
-3.175
 74
     0
  0
LTYPE
  5
13B6
330
1302
100
AcDbSymbolTableRecord
100
AcDbLinetypeTableRecord
  2
DASHDOTX2
 70
     0
  3
Dash dot (2x) ____  .  ____  .  ____  .  ___
 72
    65
 73
     4
 40
50.8
 49
25.4
 74
     0
 49
-12.7
 74
     0
 49
0.0
 74
     0
 49
-12.7
 74
     0
  0
LTYPE
  5
13B7
330
1302
100
AcDbSymbolTableRecord
100
AcDbLinetypeTableRecord
  2
DASHED
 70
     0
  3
Dashed __ __ __ __ __ __ __ __ __ __ __ __ __ _
 72
    65
 73
     2
 40
19.05
 49
12.7
 74
     0
 49
-6.35
 74
     0
  0
LTYPE
  5
13B8
330
1302
100
AcDbSymbolTableRecord
100
AcDbLinetypeTableRecord
  2
DASHED2
 70
     0
  3
Dashed (.5x) _ _ _ _ _ _ _ _ _ _ _ _ _ _ _ _ _
 72
    65
 73
     2
 40
9.524999999999999
 49
6.35
 74
     0
 49
-3.175
 74
     0
  0
LTYPE
  5
13B9
330
1302
100
AcDbSymbolTableRecord
100
AcDbLinetypeTableRecord
  2
DASHEDX2
 70
     0
  3
Dashed (2x) ____  ____  ____  ____  ____  ___
 72
    65
 73
     2
 40
38.09999999999999
 49
25.4
 74
     0
 49
-12.7
 74
     0
  0
LTYPE
  5
13BA
330
1302
100
AcDbSymbolTableRecord
100
AcDbLinetypeTableRecord
  2
DIVIDE
 70
     0
  3
Divide ____ . . ____ . . ____ . . ____ . . ____
 72
    65
 73
     6
 40
31.75
 49
12.7
 74
     0
 49
-6.35
 74
     0
 49
0.0
 74
     0
 49
-6.35
 74
     0
 49
0.0
 74
     0
 49
-6.35
 74
     0
  0
LTYPE
  5
13BB
330
1302
100
AcDbSymbolTableRecord
100
AcDbLinetypeTableRecord
  2
DIVIDE2
 70
     0
  3
Divide (.5x) __..__..__..__..__..__..__..__.._
 72
    65
 73
     6
 40
15.875
 49
6.35
 74
     0
 49
-3.175
 74
     0
 49
0.0
 74
     0
 49
-3.175
 74
     0
 49
0.0
 74
     0
 49
-3.175
 74
     0
  0
LTYPE
  5
13BC
330
1302
100
AcDbSymbolTableRecord
100
AcDbLinetypeTableRecord
  2
DIVIDEX2
 70
     0
  3
Divide (2x) ________  .  .  ________  .  .  _
 72
    65
 73
     6
 40
63.5
 49
25.4
 74
     0
 49
-12.7
 74
     0
 49
0.0
 74
     0
 49
-12.7
 74
     0
 49
0.0
 74
     0
 49
-12.7
 74
     0
  0
LTYPE
  5
13BD
330
1302
100
AcDbSymbolTableRecord
100
AcDbLinetypeTableRecord
  2
DOT
 70
     0
  3
Dot . . . . . . . . . . . . . . . . . . . . . .
 72
    65
 73
     2
 40
6.35
 49
0.0
 74
     0
 49
-6.35
 74
     0
  0
LTYPE
  5
13BE
330
1302
100
AcDbSymbolTableRecord
100
AcDbLinetypeTableRecord
  2
DOT2
 70
     0
  3
Dot (.5x) .....................................
 72
    65
 73
     2
 40
3.175
 49
0.0
 74
     0
 49
-3.175
 74
     0
  0
LTYPE
  5
13BF
330
1302
100
AcDbSymbolTableRecord
100
AcDbLinetypeTableRecord
  2
DOTX2
 70
     0
  3
Dot (2x) .  .  .  .  .  .  .  .  .  .  .  .  .
 72
    65
 73
     2
 40
12.7
 49
0.0
 74
     0
 49
-12.7
 74
     0
  0
LTYPE
  5
13C1
330
1302
100
AcDbSymbolTableRecord
100
AcDbLinetypeTableRecord
  2
DRAINAGE
 70
     0
  3
Drainage ---->---->---->----
 72
    65
 73
     2
 40
10.16
 49
5.08
 74
     2
 75
     0
340
13C0
 46
2.54
 50
180.0
 44
0.0
 45
0.0
  9
RIGHT_ARROW
 49
5.08
 74
     0
  0
LTYPE
  5
13C3
330
1302
100
AcDbSymbolTableRecord
100
AcDbLinetypeTableRecord
  2
DRAINAGE2
 70
     0
  3
Drainage reversed----<----<----<----
 72
    65
 73
     2
 40
10.16
 49
5.08
 74
     2
 75
     0
340
13C2
 46
2.54
 50
0.0
 44
0.0
 45
0.0
  9
RIGHT_ARROW
 49
5.08
 74
     0
  0
LTYPE
  5
13C5
330
1302
100
AcDbSymbolTableRecord
100
AcDbLinetypeTableRecord
  2
FENCELINE1
 70
     0
  3
Fenceline circle ----0-----0----0-----0----0-----0--
 72
    65
 73
     4
 40
36.83
 49
6.35
 74
     0
 49
-2.54
 74
     2
 75
     0
340
13C4
 46
2.54
 50
0.0
 44
-2.54
 45
0.0
  9
CIRC1
 49
-2.54
 74
     0
 49
25.4
 74
     0
  0
LTYPE
  5
13C7
330
1302
100
AcDbSymbolTableRecord
100
AcDbLinetypeTableRecord
  2
FENCELINE2
 70
     0
  3
Fenceline square ----[]-----[]----[]-----[]----[]---
 72
    65
 73
     4
 40
36.83
 49
6.35
 74
     0
 49
-2.54
 74
     2
 75
     0
340
13C6
 46
2.54
 50
0.0
 44
-2.54
 45
0.0
  9
BOX
 49
-2.54
 74
     0
 49
25.4
 74
     0
  0
LTYPE
  5
13C9
330
1302
100
AcDbSymbolTableRecord
100
AcDbLinetypeTableRecord
  2
GAS_LINE
 70
     0
  3
Gas line ----GAS----GAS----GAS----GAS----GAS----GAS--
 72
    65
 73
     3
 40
24.13
 49
12.7
 74
     0
 49
-5.08
 74
     2
 75
     0
340
13C8
 46
2.54
 50
0.0
 44
-2.54
 45
-1.27
  9
GAS
 49
-6.35
 74
     0
  0
LTYPE
  5
13CA
330
1302
100
AcDbSymbolTableRecord
100
AcDbLinetypeTableRecord
  2
HIDDEN
 70
     0
  3
Hidden __ __ __ __ __ __ __ __ __ __ __ __ __ __
 72
    65
 73
     2
 40
9.524999999999999
 49
6.35
 74
     0
 49
-3.175
 74
     0
  0
LTYPE
  5
13CB
330
1302
100
AcDbSymbolTableRecord
100
AcDbLinetypeTableRecord
  2
HIDDEN2
 70
     0
  3
Hidden (.5x) _ _ _ _ _ _ _ _ _ _ _ _ _ _ _ _ _ 
 72
    65
 73
     2
 40
4.762499999999999
 49
3.175
 74
     0
 49
-1.5875
 74
     0
  0
LTYPE
  5
13CC
330
1302
100
AcDbSymbolTableRecord
100
AcDbLinetypeTableRecord
  2
HIDDENX2
 70
     0
  3
Hidden (2x) ____ ____ ____ ____ ____ ____ ____ 
 72
    65
 73
     2
 40
19.05
 49
12.7
 74
     0
 49
-6.35
 74
     0
  0
LTYPE
  5
13CE
330
1302
100
AcDbSymbolTableRecord
100
AcDbLinetypeTableRecord
  2
HOT_WATER_SUPPLY
 70
     0
  3
Hot water supply ---- HW ---- HW ---- HW ----
 72
    65
 73
     3
 40
22.86
 49
12.7
 74
     0
 49
-5.08
 74
     2
 75
     0
340
13CD
 46
2.54
 50
0.0
 44
-2.54
 45
-1.27
  9
HW
 49
-5.08
 74
     0
  0
LTYPE
  5
13CF
330
1302
100
AcDbSymbolTableRecord
100
AcDbLinetypeTableRecord
  2
PHANTOM
 70
     0
  3
Phantom ______  __  __  ______  __  __  ______ 
 72
    65
 73
     6
 40
63.50000000000001
 49
31.75
 74
     0
 49
-6.35
 74
     0
 49
6.35
 74
     0
 49
-6.35
 74
     0
 49
6.35
 74
     0
 49
-6.35
 74
     0
  0
LTYPE
  5
13D0
330
1302
100
AcDbSymbolTableRecord
100
AcDbLinetypeTableRecord
  2
PHANTOM2
 70
     0
  3
Phantom (.5x) ___ _ _ ___ _ _ ___ _ _ ___ _ _
 72
    65
 73
     6
 40
31.75
 49
15.875
 74
     0
 49
-3.175
 74
     0
 49
3.175
 74
     0
 49
-3.175
 74
     0
 49
3.175
 74
     0
 49
-3.175
 74
     0
  0
LTYPE
  5
13D1
330
1302
100
AcDbSymbolTableRecord
100
AcDbLinetypeTableRecord
  2
PHANTOMX2
 70
     0
  3
Phantom (2x) ____________    ____    ____   _
 72
    65
 73
     6
 40
127.0
 49
63.5
 74
     0
 49
-12.7
 74
     0
 49
12.7
 74
     0
 49
-12.7
 74
     0
 49
12.7
 74
     0
 49
-12.7
 74
     0
  0
LTYPE
  5
13D3
330
1302
100
AcDbSymbolTableRecord
100
AcDbLinetypeTableRecord
  2
TRACKS
 70
     0
  3
Tracks -|-|-|-|-|-|-|-|-|-|-|-|-|-|-|-|-|-|-|-|-|-|-|-|-
 72
    65
 73
     2
 40
7.62
 49
3.81
 74
     2
 75
     0
340
13D2
 46
6.35
 50
0.0
 44
0.0
 45
0.0
  9
TRACK1
 49
3.81
 74
     0
  0
LTYPE
  5
13D6
330
1302
100
AcDbSymbolTableRecord
100
AcDbLinetypeTableRecord
  2
ZIGZAG
 70
     0
  3
Zig zag /\/\/\/\/\/\/\/\/\/\/\/\/\/\/\/\/\/\/\/\/\/\/\/
 72
    65
 73
     4
 40
20.32254
 49
0.00254
 74
     0
 49
-5.08
 74
     2
 75
     0
340
13D4
 46
5.08
 50
0.0
 44
-5.08
 45
0.0
  9
ZIG
 49
-10.16
 74
     2
 75
     0
340
13D5
 46
5.08
 50
180.0
 44
5.08
 45
0.0
  9
ZIG
 49
-5.08
 74
     0
  0
ENDTAB
  0
TABLE
  2
LAYER
  5
12FF
330
0
100
AcDbSymbolTable
 70
    12
  0
LAYER
  5
130D
330
12FF
100
AcDbSymbolTableRecord
100
AcDbLayerTableRecord
  2
0
 70
     0
 62
     7
420
 16777215
  6
Continuous
370
     0
390
130C
347
1342
  0
LAYER
  5
13D7
330
12FF
100
AcDbSymbolTableRecord
100
AcDbLayerTableRecord
  2
profile alu kresk
 70
     0
 62
     5
420
      255
  6
Continuous
370
     0
390
130C
347
1342
  0
LAYER
  5
13D8
330
12FF
100
AcDbSymbolTableRecord
100
AcDbLayerTableRecord
  2
osie
 70
     0
 62
     1
420
 16711680
  6
ACAD_ISO10W100
370
    -3
390
130C
347
1342
  0
LAYER
  5
13D9
330
12FF
100
AcDbSymbolTableRecord
100
AcDbLayerTableRecord
  2
podstawa swietlika
 70
     0
 62
    97
420
  3697469
  6
Continuous
370
     9
390
130C
347
1342
  0
LAYER
  5
13DA
330
12FF
100
AcDbSymbolTableRecord
100
AcDbLayerTableRecord
  2
sruby
 70
     0
 62
     7
420
 16777215
  6
Continuous
370
     9
390
130C
347
1342
  0
LAYER
  5
13DB
330
12FF
100
AcDbSymbolTableRecord
100
AcDbLayerTableRecord
  2
sruba
 70
     0
 62
     7
420
 16777215
  6
Continuous
370
    13
390
130C
347
1342
  0
LAYER
  5
13DC
330
12FF
100
AcDbSymbolTableRecord
100
AcDbLayerTableRecord
  2
wymiary
 70
     0
 62
     7
420
 16777215
  6
Continuous
370
    -3
390
130C
347
1342
  0
LAYER
  5
13DD
330
12FF
100
AcDbSymbolTableRecord
100
AcDbLayerTableRecord
  2
ramka
 70
     0
 62
     7
420
 16777215
  6
Continuous
370
    -3
390
130C
347
1342
  0
LAYER
  5
13DE
330
12FF
100
AcDbSymbolTableRecord
100
AcDbLayerTableRecord
  2
uszczelka EPDM
 70
     0
 62
     7
420
 16777215
  6
Continuous
370
     0
390
130C
347
1342
  0
LAYER
  5
13DF
330
12FF
100
AcDbSymbolTableRecord
100
AcDbLayerTableRecord
  2
profile aluminiowe
 70
     0
 62
     5
420
      255
  6
Continuous
370
    13
390
130C
347
1342
  0
LAYER
  5
13E0
330
12FF
100
AcDbSymbolTableRecord
100
AcDbLayerTableRecord
  2
tasma
 70
     0
 62
    56
420
  8421376
  6
Continuous
370
    13
390
130C
347
1342
  0
LAYER
  5
13E1
330
12FF
100
AcDbSymbolTableRecord
100
AcDbLayerTableRecord
  2
swietlik poliweglan
 70
     0
 62
   253
420
 10526884
  6
Continuous
370
     9
390
130C
347
1342
  0
ENDTAB
  0
TABLE
  2
STYLE
  5
1300
330
0
100
AcDbSymbolTable
 70
    49
  0
STYLE
  5
130E
330
1300
100
AcDbSymbolTableRecord
100
AcDbTextStyleTableRecord
  2
Standard
 70
     0
 40
0.0
 41
1.0
 50
0.0
 71
     0
 42
2.5
  3
txt
  4

  0
STYLE
  5
139B
330
1300
100
AcDbSymbolTableRecord
100
AcDbTextStyleTableRecord
  2
QCADDimTextStyle
 70
     0
 40
0.0
 41
1.0
 50
0.0
 71
     0
 42
2.5
  3

  4

  0
STYLE
  5
13AB
330
1300
100
AcDbSymbolTableRecord
100
AcDbTextStyleTableRecord
  2
textstyle0
 70
     0
 40
0.0
 41
1.0
 50
0.0
 71
     0
 42
2.5
  3
ltypeshp.shx
  4

  0
STYLE
  5
13AC
330
1300
100
AcDbSymbolTableRecord
100
AcDbTextStyleTableRecord
  2
textstyle1
 70
     0
 40
0.0
 41
1.0
 50
0.0
 71
     0
 42
2.5
  3
ltypeshp.shx
  4

  0
STYLE
  5
13C0
330
1300
100
AcDbSymbolTableRecord
100
AcDbTextStyleTableRecord
  2
textstyle2
 70
     0
 40
0.0
 41
1.0
 50
0.0
 71
     0
 42
2.5
  3
qcadshp.shx
  4

  0
STYLE
  5
13C2
330
1300
100
AcDbSymbolTableRecord
100
AcDbTextStyleTableRecord
  2
textstyle3
 70
     0
 40
0.0
 41
1.0
 50
0.0
 71
     0
 42
2.5
  3
qcadshp.shx
  4

  0
STYLE
  5
13C4
330
1300
100
AcDbSymbolTableRecord
100
AcDbTextStyleTableRecord
  2
textstyle4
 70
     0
 40
0.0
 41
1.0
 50
0.0
 71
     0
 42
2.5
  3
ltypeshp.shx
  4

  0
STYLE
  5
13C6
330
1300
100
AcDbSymbolTableRecord
100
AcDbTextStyleTableRecord
  2
textstyle5
 70
     0
 40
0.0
 41
1.0
 50
0.0
 71
     0
 42
2.5
  3
ltypeshp.shx
  4

  0
STYLE
  5
13C8
330
1300
100
AcDbSymbolTableRecord
100
AcDbTextStyleTableRecord
  2
textstyle6
 70
     0
 40
0.0
 41
1.0
 50
0.0
 71
     0
 42
2.5
  3
STANDARD
  4

  0
STYLE
  5
13CD
330
1300
100
AcDbSymbolTableRecord
100
AcDbTextStyleTableRecord
  2
textstyle7
 70
     0
 40
0.0
 41
1.0
 50
0.0
 71
     0
 42
2.5
  3
STANDARD
  4

  0
STYLE
  5
13D2
330
1300
100
AcDbSymbolTableRecord
100
AcDbTextStyleTableRecord
  2
textstyle8
 70
     0
 40
0.0
 41
1.0
 50
0.0
 71
     0
 42
2.5
  3
ltypeshp.shx
  4

  0
STYLE
  5
13D4
330
1300
100
AcDbSymbolTableRecord
100
AcDbTextStyleTableRecord
  2
textstyle9
 70
     0
 40
0.0
 41
1.0
 50
0.0
 71
     0
 42
2.5
  3
ltypeshp.shx
  4

  0
STYLE
  5
13D5
330
1300
100
AcDbSymbolTableRecord
100
AcDbTextStyleTableRecord
  2
textstyle10
 70
     0
 40
0.0
 41
1.0
 50
0.0
 71
     0
 42
2.5
  3
ltypeshp.shx
  4

  0
STYLE
  5
13E5
330
1300
100
AcDbSymbolTableRecord
100
AcDbTextStyleTableRecord
  2
textstyle11
 70
     0
 40
0.0
 41
1.0
 50
0.0
 71
     0
 42
2.5
  3
normallatin2
  4

1001
ACAD
1000
normallatin2
1071
        0
  0
STYLE
  5
13E6
330
1300
100
AcDbSymbolTableRecord
100
AcDbTextStyleTableRecord
  2
textstyle12
 70
     0
 40
0.0
 41
1.0
 50
0.0
 71
     0
 42
2.5
  3
NormalLatin2
  4

1001
ACAD
1000
NormalLatin2
1071
        0
  0
STYLE
  5
13E7
330
1300
100
AcDbSymbolTableRecord
100
AcDbTextStyleTableRecord
  2
textstyle13
 70
     0
 40
0.0
 41
1.0
 50
0.0
 71
     0
 42
2.5
  3
normallatin2
  4

1001
ACAD
1000
normallatin2
1071
        0
  0
STYLE
  5
13E8
330
1300
100
AcDbSymbolTableRecord
100
AcDbTextStyleTableRecord
  2
textstyle14
 70
     0
 40
0.0
 41
1.0
 50
0.0
 71
     0
 42
2.5
  3
NormalLatin2
  4

1001
ACAD
1000
NormalLatin2
1071
        0
  0
STYLE
  5
13E9
330
1300
100
AcDbSymbolTableRecord
100
AcDbTextStyleTableRecord
  2
textstyle15
 70
     0
 40
0.0
 41
1.0
 50
0.0
 71
     0
 42
2.5
  3
NormalLatin2
  4

1001
ACAD
1000
NormalLatin2
1071
        0
  0
STYLE
  5
13EA
330
1300
100
AcDbSymbolTableRecord
100
AcDbTextStyleTableRecord
  2
textstyle16
 70
     0
 40
0.0
 41
1.0
 50
0.0
 71
     0
 42
2.5
  3
normallatin2
  4

1001
ACAD
1000
normallatin2
1071
        0
  0
STYLE
  5
13EB
330
1300
100
AcDbSymbolTableRecord
100
AcDbTextStyleTableRecord
  2
textstyle17
 70
     0
 40
0.0
 41
1.0
 50
0.0
 71
     0
 42
2.5
  3
normallatin2
  4

1001
ACAD
1000
normallatin2
1071
        0
  0
STYLE
  5
13EC
330
1300
100
AcDbSymbolTableRecord
100
AcDbTextStyleTableRecord
  2
textstyle18
 70
     0
 40
0.0
 41
1.0
 50
0.0
 71
     0
 42
2.5
  3
NormalLatin2
  4

1001
ACAD
1000
NormalLatin2
1071
        0
  0
STYLE
  5
13ED
330
1300
100
AcDbSymbolTableRecord
100
AcDbTextStyleTableRecord
  2
textstyle19
 70
     0
 40
0.0
 41
1.0
 50
0.0
 71
     0
 42
2.5
  3
normallatin2
  4

1001
ACAD
1000
normallatin2
1071
        0
  0
STYLE
  5
13EE
330
1300
100
AcDbSymbolTableRecord
100
AcDbTextStyleTableRecord
  2
textstyle20
 70
     0
 40
0.0
 41
1.0
 50
0.0
 71
     0
 42
2.5
  3
normallatin2
  4

1001
ACAD
1000
normallatin2
1071
        0
  0
STYLE
  5
13EF
330
1300
100
AcDbSymbolTableRecord
100
AcDbTextStyleTableRecord
  2
textstyle21
 70
     0
 40
0.0
 41
1.0
 50
0.0
 71
     0
 42
2.5
  3
normallatin2
  4

1001
ACAD
1000
normallatin2
1071
        0
  0
STYLE
  5
13F0
330
1300
100
AcDbSymbolTableRecord
100
AcDbTextStyleTableRecord
  2
textstyle22
 70
     0
 40
0.0
 41
1.0
 50
0.0
 71
     0
 42
2.5
  3
normallatin2
  4

1001
ACAD
1000
normallatin2
1071
        0
  0
STYLE
  5
13F1
330
1300
100
AcDbSymbolTableRecord
100
AcDbTextStyleTableRecord
  2
textstyle23
 70
     0
 40
0.0
 41
1.0
 50
0.0
 71
     0
 42
2.5
  3
normallatin2
  4

1001
ACAD
1000
normallatin2
1071
        0
  0
STYLE
  5
13F2
330
1300
100
AcDbSymbolTableRecord
100
AcDbTextStyleTableRecord
  2
textstyle24
 70
     0
 40
0.0
 41
1.0
 50
0.0
 71
     0
 42
2.5
  3
normallatin2
  4

1001
ACAD
1000
normallatin2
1071
        0
  0
STYLE
  5
13F3
330
1300
100
AcDbSymbolTableRecord
100
AcDbTextStyleTableRecord
  2
textstyle25
 70
     0
 40
0.0
 41
1.0
 50
0.0
 71
     0
 42
2.5
  3
normallatin2
  4

1001
ACAD
1000
normallatin2
1071
        0
  0
STYLE
  5
13F4
330
1300
100
AcDbSymbolTableRecord
100
AcDbTextStyleTableRecord
  2
textstyle26
 70
     0
 40
0.0
 41
1.0
 50
0.0
 71
     0
 42
2.5
  3
normallatin2
  4

1001
ACAD
1000
normallatin2
1071
        0
  0
STYLE
  5
13F5
330
1300
100
AcDbSymbolTableRecord
100
AcDbTextStyleTableRecord
  2
textstyle27
 70
     0
 40
0.0
 41
1.0
 50
0.0
 71
     0
 42
2.5
  3
NormalLatin2
  4

1001
ACAD
1000
NormalLatin2
1071
        0
  0
STYLE
  5
13F6
330
1300
100
AcDbSymbolTableRecord
100
AcDbTextStyleTableRecord
  2
textstyle28
 70
     0
 40
0.0
 41
1.0
 50
0.0
 71
     0
 42
2.5
  3
NormalLatin2
  4

1001
ACAD
1000
NormalLatin2
1071
        0
  0
STYLE
  5
13F7
330
1300
100
AcDbSymbolTableRecord
100
AcDbTextStyleTableRecord
  2
textstyle29
 70
     0
 40
0.0
 41
1.0
 50
0.0
 71
     0
 42
2.5
  3
NormalLatin2
  4

1001
ACAD
1000
NormalLatin2
1071
        0
  0
STYLE
  5
13F8
330
1300
100
AcDbSymbolTableRecord
100
AcDbTextStyleTableRecord
  2
textstyle30
 70
     0
 40
0.0
 41
1.0
 50
0.0
 71
     0
 42
2.5
  3

  4

1001
ACAD
1000
proxy_4e53
1071
        0
  0
STYLE
  5
13F9
330
1300
100
AcDbSymbolTableRecord
100
AcDbTextStyleTableRecord
  2
textstyle31
 70
     0
 40
0.0
 41
1.0
 50
0.0
 71
     0
 42
2.5
  3
NormalLatin2
  4

1001
ACAD
1000
NormalLatin2
1071
        0
  0
STYLE
  5
13FA
330
1300
100
AcDbSymbolTableRecord
100
AcDbTextStyleTableRecord
  2
textstyle32
 70
     0
 40
0.0
 41
1.0
 50
0.0
 71
     0
 42
2.5
  3
NormalLatin2
  4

1001
ACAD
1000
NormalLatin2
1071
        0
  0
STYLE
  5
13FB
330
1300
100
AcDbSymbolTableRecord
100
AcDbTextStyleTableRecord
  2
textstyle33
 70
     0
 40
0.0
 41
1.0
 50
0.0
 71
     0
 42
2.5
  3
NormalLatin2
  4

1001
ACAD
1000
NormalLatin2
1071
        0
  0
STYLE
  5
13FC
330
1300
100
AcDbSymbolTableRecord
100
AcDbTextStyleTableRecord
  2
textstyle34
 70
     0
 40
0.0
 41
1.0
 50
0.0
 71
     0
 42
2.5
  3
NormalLatin2
  4

1001
ACAD
1000
NormalLatin2
1071
        0
  0
STYLE
  5
13FD
330
1300
100
AcDbSymbolTableRecord
100
AcDbTextStyleTableRecord
  2
textstyle35
 70
     0
 40
0.0
 41
1.0
 50
0.0
 71
     0
 42
2.5
  3
normallatin2
  4

1001
ACAD
1000
normallatin2
1071
        0
  0
STYLE
  5
13FE
330
1300
100
AcDbSymbolTableRecord
100
AcDbTextStyleTableRecord
  2
textstyle36
 70
     0
 40
0.0
 41
1.0
 50
0.0
 71
     0
 42
2.5
  3
normallatin2
  4

1001
ACAD
1000
normallatin2
1071
        0
  0
STYLE
  5
13FF
330
1300
100
AcDbSymbolTableRecord
100
AcDbTextStyleTableRecord
  2
textstyle37
 70
     0
 40
0.0
 41
1.0
 50
0.0
 71
     0
 42
2.5
  3
NormalLatin2
  4

1001
ACAD
1000
NormalLatin2
1071
        0
  0
STYLE
  5
1400
330
1300
100
AcDbSymbolTableRecord
100
AcDbTextStyleTableRecord
  2
textstyle38
 70
     0
 40
0.0
 41
1.0
 50
0.0
 71
     0
 42
2.5
  3
NormalLatin2
  4

1001
ACAD
1000
NormalLatin2
1071
        0
  0
STYLE
  5
1401
330
1300
100
AcDbSymbolTableRecord
100
AcDbTextStyleTableRecord
  2
textstyle39
 70
     0
 40
0.0
 41
1.0
 50
0.0
 71
     0
 42
2.5
  3
NormalLatin2
  4

1001
ACAD
1000
NormalLatin2
1071
        0
  0
STYLE
  5
1402
330
1300
100
AcDbSymbolTableRecord
100
AcDbTextStyleTableRecord
  2
textstyle40
 70
     0
 40
0.0
 41
1.0
 50
0.0
 71
     0
 42
2.5
  3
normallatin2
  4

1001
ACAD
1000
normallatin2
1071
        0
  0
STYLE
  5
1403
330
1300
100
AcDbSymbolTableRecord
100
AcDbTextStyleTableRecord
  2
textstyle41
 70
     0
 40
0.0
 41
1.0
 50
0.0
 71
     0
 42
2.5
  3
normallatin2
  4

1001
ACAD
1000
normallatin2
1071
        0
  0
STYLE
  5
1404
330
1300
100
AcDbSymbolTableRecord
100
AcDbTextStyleTableRecord
  2
textstyle42
 70
     0
 40
0.0
 41
1.0
 50
0.0
 71
     0
 42
2.5
  3
NormalLatin2
  4

1001
ACAD
1000
NormalLatin2
1071
        0
  0
STYLE
  5
1405
330
1300
100
AcDbSymbolTableRecord
100
AcDbTextStyleTableRecord
  2
textstyle43
 70
     0
 40
0.0
 41
1.0
 50
0.0
 71
     0
 42
2.5
  3
normallatin2
  4

1001
ACAD
1000
normallatin2
1071
        0
  0
STYLE
  5
1406
330
1300
100
AcDbSymbolTableRecord
100
AcDbTextStyleTableRecord
  2
textstyle44
 70
     0
 40
0.0
 41
1.0
 50
0.0
 71
     0
 42
2.5
  3
NormalLatin2
  4

1001
ACAD
1000
NormalLatin2
1071
        0
  0
STYLE
  5
1407
330
1300
100
AcDbSymbolTableRecord
100
AcDbTextStyleTableRecord
  2
textstyle45
 70
     0
 40
0.0
 41
1.0
 50
0.0
 71
     0
 42
2.5
  3
NormalLatin2
  4

1001
ACAD
1000
NormalLatin2
1071
        0
  0
STYLE
  5
1408
330
1300
100
AcDbSymbolTableRecord
100
AcDbTextStyleTableRecord
  2
textstyle46
 70
     0
 40
0.0
 41
1.0
 50
0.0
 71
     0
 42
2.5
  3
NormalLatin2
  4

1001
ACAD
1000
NormalLatin2
1071
        0
  0
ENDTAB
  0
TABLE
  2
VIEW
  5
1303
330
0
100
AcDbSymbolTable
 70
     0
  0
ENDTAB
  0
TABLE
  2
UCS
  5
1304
330
0
100
AcDbSymbolTable
 70
     0
  0
ENDTAB
  0
TABLE
  2
APPID
  5
1306
330
0
100
AcDbSymbolTable
 70
     2
  0
APPID
  5
130F
330
1306
100
AcDbSymbolTableRecord
100
AcDbRegAppTableRecord
  2
ACAD
 70
     0
  0
APPID
  5
136A
330
1306
100
AcDbSymbolTableRecord
100
AcDbRegAppTableRecord
  2
QCAD
 70
     0
  0
ENDTAB
  0
TABLE
  2
DIMSTYLE
  5
1307
330
0
100
AcDbSymbolTable
 70
     2
100
AcDbDimStyleTable
  0
DIMSTYLE
105
1323
330
1307
100
AcDbSymbolTableRecord
100
AcDbDimStyleTableRecord
  2
Standard
 70
     0
178
     0
340
130E
  0
DIMSTYLE
105
139C
330
1307
100
AcDbSymbolTableRecord
100
AcDbDimStyleTableRecord
  2
QCADDimStyle
 70
     0
 41
4.0
 42
0.75
 44
1.5
 73
     0
 77
     1
140
3.0
147
0.75
178
     0
340
139B
  0
ENDTAB
  0
TABLE
  2
BLOCK_RECORD
  5
12FE
330
0
100
AcDbSymbolTable
 70
     2
  0
BLOCK_RECORD
  5
131B
330
12FE
100
AcDbSymbolTableRecord
100
AcDbBlockTableRecord
  2
*Model_Space
340
131E
 70
     0
280
     1
281
     0
  0
BLOCK_RECORD
  5
1317
330
12FE
100
AcDbSymbolTableRecord
100
AcDbBlockTableRecord
  2
*Paper_Space
340
131A
 70
     0
280
     1
281
     0
  0
BLOCK_RECORD
  5
131F
330
12FE
100
AcDbSymbolTableRecord
100
AcDbBlockTableRecord
  2
*Paper_Space0
340
1322
 70
     0
280
     1
281
     0
  0
BLOCK_RECORD
  5
13E2
330
12FE
100
AcDbSymbolTableRecord
100
AcDbBlockTableRecord
  2
pole
340
0
102
{BLKREFS
331
743
331
744
102
}
 70
     0
280
     1
281
     0
  0
ENDTAB
  0
ENDSEC
  0
SECTION
  2
BLOCKS
  0
BLOCK
  5
131C
330
131B
100
AcDbEntity
  8
0
100
AcDbBlockBegin
  2
*Model_Space
 70
     0
 10
0.0
 20
0.0
 30
0.0
  3
*Model_Space
  1
*Model_Space
  0
ENDBLK
  5
131D
330
131B
100
AcDbEntity
  8
0
100
AcDbBlockEnd
  0
BLOCK
  5
1318
330
1317
100
AcDbEntity
 67
     1
  8
0
100
AcDbBlockBegin
  2
*Paper_Space
 70
     0
 10
0.0
 20
0.0
 30
0.0
  3
*Paper_Space
  1
*Paper_Space
  0
ENDBLK
  5
1319
330
1317
100
AcDbEntity
 67
     1
  8
0
100
AcDbBlockEnd
  0
BLOCK
  5
1320
330
131F
100
AcDbEntity
  8
0
100
AcDbBlockBegin
  2
*Paper_Space0
 70
     0
 10
0.0
 20
0.0
 30
0.0
  3
*Paper_Space0
  1
*Paper_Space0
  0
ENDBLK
  5
1321
330
131F
100
AcDbEntity
  8
0
100
AcDbBlockEnd
  0
BLOCK
  5
13E3
330
13E2
100
AcDbEntity
  8
0
100
AcDbBlockBegin
  2
pole
 70
     0
 10
0.0
 20
0.0
 30
0.0
  3
pole
  1
pole
  0
ARC
  5
68F
330
13E2
100
AcDbEntity
  8
swietlik poliweglan
100
AcDbCircle
 10
-915.4768284198735
 20
-619.8419503145358
 30
0.0
 40
1226.41754716736
100
AcDbArc
 50
37.21687799580135
 51
144.6252481561238
  0
ARC
  5
690
330
13E2
100
AcDbEntity
  8
swietlik poliweglan
100
AcDbCircle
 10
-887.3024378931634
 20
-589.7892670860467
 30
0.0
 40
1226.41754716736
100
AcDbArc
 50
37.21660860916113
 51
144.6252481561238
  0
ARC
  5
691
330
13E2
100
AcDbEntity
  8
swietlik poliweglan
100
AcDbCircle
 10
-859.1280473664544
 20
-559.7365838575574
 30
0.0
 40
1226.41754716736
100
AcDbArc
 50
37.21633922230613
 51
144.6252481561238
  0
ARC
  5
692
330
13E2
100
AcDbEntity
  8
swietlik poliweglan
100
AcDbCircle
 10
-830.9536568397446
 20
-529.6839006290681
 30
0.0
 40
1226.41754716736
100
AcDbArc
 50
37.21606983523638
 51
144.6252481561238
  0
ARC
  5
693
330
13E2
100
AcDbEntity
  8
swietlik poliweglan
100
AcDbCircle
 10
-830.9536568397446
 20
-529.6839006290686
 30
0.0
 40
1226.41754716736
100
AcDbArc
 50
37.2160698352364
 51
144.6252481561238
  0
ARC
  5
694
330
13E2
100
AcDbEntity
  8
swietlik poliweglan
100
AcDbCircle
 10
-802.7792663130358
 20
-499.6312174005791
 30
0.0
 40
1226.41754716736
100
AcDbArc
 50
37.21580044795188
 51
144.6252481561238
  0
ARC
  5
695
330
13E2
100
AcDbEntity
  8
swietlik poliweglan
100
AcDbCircle
 10
-802.7792663130349
 20
-499.6312174005793
 30
0.0
 40
1226.41754716736
100
AcDbArc
 50
37.21580044795192
 51
144.6252481561238
  0
ARC
  5
696
330
13E2
100
AcDbEntity
  8
swietlik poliweglan
100
AcDbCircle
 10
-1000.602921233149
 20
-708.9117619620351
 30
0.0
 40
1226.41754716736
100
AcDbArc
 50
37.16156877240307
 51
144.6252481561238
  0
ARC
  5
697
330
13E2
100
AcDbEntity
  8
swietlik poliweglan
100
AcDbCircle
 10
-1000.000000000001
 20
-710.0000000000034
 30
0.0
 40
1226.41754716736
100
AcDbArc
 50
37.21768615443368
 51
144.6252481561238
  0
ARC
  5
698
330
13E2
100
AcDbEntity
  8
swietlik poliweglan
100
AcDbCircle
 10
-771.1867479855491
 20
-443.80942581927
 30
0.0
 40
1208.842989155106
100
AcDbArc
 50
36.34558698301806
 51
143.780376703602
  0
ARC
  5
699
330
13E2
100
AcDbEntity
  8
swietlik poliweglan
100
AcDbCircle
 10
-774.6048757863261
 20
-469.57853417209
 30
0.0
 40
1226.41754716736
100
AcDbArc
 50
37.21553106045261
 51
144.6252481561238
  0
ARC
  5
69A
330
13E2
100
AcDbEntity
  8
swietlik poliweglan
100
AcDbCircle
 10
-887.3024378931643
 20
-589.7892670860467
 30
0.0
 40
1206.41754716736
100
AcDbArc
 50
37.0555210771218
 51
130.4194221345177
  0
ARC
  5
69B
330
13E2
100
AcDbEntity
  8
swietlik poliweglan
100
AcDbCircle
 10
-859.1280473664544
 20
-559.7365838575574
 30
0.0
 40
1206.41754716736
100
AcDbArc
 50
37.05524709267541
 51
133.7469261084245
  0
ARC
  5
69C
330
13E2
100
AcDbEntity
  8
swietlik poliweglan
100
AcDbCircle
 10
-774.6048757863261
 20
-469.57853417209
 30
0.0
 40
1206.41754716736
100
AcDbArc
 50
37.05442513798054
 51
139.6893680764095
  0
ARC
  5
69D
330
13E2
100
AcDbEntity
  8
swietlik poliweglan
100
AcDbCircle
 10
-830.9536568397446
 20
-529.6839006290681
 30
0.0
 40
1206.41754716736
100
AcDbArc
 50
37.05497310800307
 51
136.1290274464214
  0
ARC
  5
69E
330
13E2
100
AcDbEntity
  8
swietlik poliweglan
100
AcDbCircle
 10
-802.7792663130358
 20
-499.6312174005791
 30
0.0
 40
1206.41754716736
100
AcDbArc
 50
37.05469912310477
 51
138.042273152305
  0
ARC
  5
69F
330
13E2
100
AcDbEntity
  8
swietlik poliweglan
100
AcDbCircle
 10
-943.651218946582
 20
-649.8946335430248
 30
0.0
 40
1246.41754716736
100
AcDbArc
 50
37.37298329737
 51
125.1681037224923
  0
ARC
  5
6A0
330
13E2
100
AcDbEntity
  8
swietlik poliweglan
100
AcDbCircle
 10
-971.8256094732915
 20
-679.9473167715141
 30
0.0
 40
1246.41754716736
100
AcDbArc
 50
37.37324823982384
 51
124.8259513486009
  0
ARC
  5
6A1
330
13E2
100
AcDbEntity
  8
swietlik poliweglan
100
AcDbCircle
 10
-1000.602921233149
 20
-708.9117619620351
 30
0.0
 40
1246.41754716736
100
AcDbArc
 50
37.31832165253841
 51
124.2849618564732
  0
HATCH
  5
6A2
330
13E2
100
AcDbEntity
  8
profile aluminiowe
100
AcDbHatch
 10
0.0
 20
0.0
 30
0.0
210
0.0
220
0.0
230
1.0
  2
SOLID
 70
     1
 71
     0
 91
        1
 92
        0
 93
        6
 72
     2
 10
-775.258141407676
 20
-468.5439968148589
 40
1226.417547167358
 50
35.37475184387608
 51
90.0
 73
     1
 72
     2
 10
-775.258141407676
 20
-468.5439968148589
 40
1226.417547167358
 50
89.99999999999999
 51
144.6252481561239
 73
     1
 72
     1
 10
-1775.258141407675
 20
241.4560031851415
 11
-1630.763044571474
 21
410.2115782244698
 72
     2
 10
-746.4808296478175
 20
-439.579551624335
 40
1226.417547167358
 50
223.8605250949465
 51
270.0
 73
     0
 72
     2
 10
-746.4808296478175
 20
-439.579551624335
 40
1226.417547167358
 50
270.0
 51
324.6252481561239
 73
     0
 72
     1
 10
253.519170352182
 20
270.4204483756648
 11
224.7418585923235
 21
241.4560031851408
 97
        0
 75
     0
 76
     1
 98
        0
  0
ARC
  5
6A3
330
13E2
100
AcDbEntity
  8
swietlik poliweglan
100
AcDbCircle
 10
-774.6048757863261
 20
-469.5785341720903
 30
0.0
 40
1226.41754716736
100
AcDbArc
 50
35.37475184387621
 51
144.6252481561238
  0
ARC
  5
6A4
330
13E2
100
AcDbEntity
  8
swietlik poliweglan
100
AcDbCircle
 10
-746.4304852596167
 20
-439.5258509436007
 30
0.0
 40
1226.41754716736
100
AcDbArc
 50
35.37475184387621
 51
144.6252481561238
  0
LINE
  5
6A5
330
13E2
100
AcDbEntity
  8
swietlik poliweglan
100
AcDbLine
 10
-0.6999191125564721
 20
0.9847736332669683
 30
0.0
 11
252.8695956278243
 21
271.4589226896721
 31
0.0
  0
HATCH
  5
6A6
330
13E2
100
AcDbEntity
  8
profile aluminiowe
100
AcDbHatch
 10
0.0
 20
0.0
 30
0.0
210
0.0
220
0.0
230
1.0
  2
SOLID
 70
     1
 71
     0
 91
        1
 92
        0
 93
        4
 72
     1
 10
-23.26690980193735
 20
31.8817844061025
 11
202.7330901980627
 21
272.8817844061025
 72
     1
 10
202.7330901980627
 20
272.8817844061025
 11
224.6952051011153
 21
241.4062394611828
 72
     1
 10
224.6952051011153
 20
241.4062394611828
 11
0.0
 21
0.0
 72
     1
 10
0.0
 20
0.0
 11
-23.26690980193735
 21
31.8817844061025
 97
        0
 75
     0
 76
     1
 98
        0
  0
ARC
  5
6A7
330
13E2
100
AcDbEntity
  8
swietlik poliweglan
100
AcDbCircle
 10
-971.8256094732915
 20
-679.9473167715141
 30
0.0
 40
1226.41754716736
100
AcDbArc
 50
37.21741676843762
 51
144.6252481561238
  0
ARC
  5
6A8
330
13E2
100
AcDbEntity
  8
swietlik poliweglan
100
AcDbCircle
 10
-971.8256094732915
 20
-679.9473167715144
 30
0.0
 40
1226.41754716736
100
AcDbArc
 50
37.21741676843763
 51
144.6252481561238
  0
ARC
  5
6A9
330
13E2
100
AcDbEntity
  8
swietlik poliweglan
100
AcDbCircle
 10
-943.651218946582
 20
-649.8946335430251
 30
0.0
 40
1226.41754716736
100
AcDbArc
 50
37.21714738222688
 51
144.6252481561238
  0
ARC
  5
6AA
330
13E2
100
AcDbEntity
  8
swietlik poliweglan
100
AcDbCircle
 10
-887.3024378931643
 20
-589.7892670860467
 30
0.0
 40
1226.41754716736
100
AcDbArc
 50
37.21660860916117
 51
144.6252481561238
  0
ARC
  5
6AB
330
13E2
100
AcDbEntity
  8
swietlik poliweglan
100
AcDbCircle
 10
-859.1280473664544
 20
-559.7365838575577
 30
0.0
 40
1226.41754716736
100
AcDbArc
 50
37.2163392223062
 51
144.6252481561238
  0
LINE
  5
6AC
330
13E2
100
AcDbEntity
  8
swietlik poliweglan
100
AcDbLine
 10
202.7330901980627
 20
272.8817844061025
 30
0.0
 11
-23.26690980193735
 21
31.8817844061025
 31
0.0
  0
ARC
  5
6AD
330
13E2
100
AcDbEntity
  8
swietlik poliweglan
100
AcDbCircle
 10
-943.651218946582
 20
-649.8946335430248
 30
0.0
 40
1226.41754716736
100
AcDbArc
 50
37.21714738222686
 51
144.6252481561238
  0
ARC
  5
6AE
330
13E2
100
AcDbEntity
  8
swietlik poliweglan
100
AcDbCircle
 10
-915.4768284198726
 20
-619.841950314536
 30
0.0
 40
1226.41754716736
100
AcDbArc
 50
37.21687799580138
 51
144.6252481561238
  0
ENDBLK
  5
13E4
330
13E2
100
AcDbEntity
  8
0
100
AcDbBlockEnd
  0
ENDSEC
  0
SECTION
  2
ENTITIES
  0
HATCH
  5
1213
330
131B
100
AcDbEntity
  8
podstawa swietlika
100
AcDbHatch
 10
0.0
 20
0.0
 30
0.0
210
0.0
220
0.0
230
1.0
  2
SOLID
 70
     1
 71
     0
 91
        1
 92
        0
 93
        4
 72
     1
 10
1391.484437575235
 20
175.6696125060461
 11
1390.998701187597
 21
161.7451693937608
 72
     1
 10
1390.998701187597
 20
161.7451693937608
 11
1213.0
 21
-34.0
 72
     1
 10
1213.0
 20
-34.0
 11
1213.0
 21
-6.0
 72
     1
 10
1213.0
 20
-6.0
 11
1391.484437575235
 21
175.6696125060461
 97
        0
 75
     0
 76
     1
 98
        0
  0
HATCH
  5
71B
330
131B
100
AcDbEntity
  8
profile aluminiowe
100
AcDbHatch
 10
0.0
 20
0.0
 30
0.0
210
0.0
220
0.0
230
1.0
  2
SOLID
 70
     1
 71
     0
 91
        1
 92
        0
 93
        6
 72
     2
 10
1072.850664315808
 20
-93.81537471489025
 40
245.2835094334717
 50
35.37475184387608
 51
90.0
 73
     1
 72
     2
 10
1072.850664315808
 20
-93.81537471489025
 40
245.2835094334717
 50
89.99999999999999
 51
144.6252481561239
 73
     1
 72
     1
 10
872.8506643158081
 20
48.18462528510989
 11
901.7496836830483
 21
81.93574029297497
 72
     2
 10
1078.606126667779
 20
-88.02248567678544
 40
245.2835094334717
 50
223.8605250949465
 51
270.0
 73
     0
 72
     2
 10
1078.606126667779
 20
-88.02248567678544
 40
245.2835094334717
 50
270.0
 51
324.6252481561239
 73
     0
 72
     1
 10
1278.606126667779
 20
53.97751432321459
 11
1272.850664315808
 21
48.18462528510975
 97
        0
 75
     0
 76
     1
 98
        0
  0
HATCH
  5
71C
330
131B
100
AcDbEntity
  8
profile aluminiowe
100
AcDbHatch
 10
0.0
 20
0.0
 30
0.0
210
0.0
220
0.0
230
1.0
  2
SOLID
 70
     1
 71
     0
 91
        1
 92
        0
 93
        6
 72
     2
 10
1022.146830245371
 20
-147.8994643900224
 40
245.2835094334717
 50
35.37475184387608
 51
90.0
 73
     1
 72
     2
 10
1022.146830245371
 20
-147.8994643900224
 40
245.2835094334717
 50
89.99999999999999
 51
144.6252481561239
 73
     1
 72
     1
 10
822.1468302453711
 20
-5.899464390022246
 11
851.0458496126116
 21
27.85165061784278
 72
     2
 10
1027.902292597343
 20
-142.1065753519179
 40
245.2835094334717
 50
223.8605250949465
 51
270.0
 73
     0
 72
     2
 10
1027.902292597343
 20
-142.1065753519179
 40
245.2835094334717
 50
270.0
 51
324.6252481561239
 73
     0
 72
     1
 10
1227.902292597343
 20
-0.1065753519178827
 11
1222.146830245371
 21
-5.899464390022388
 97
        0
 75
     0
 76
     1
 98
        0
  0
ARC
  5
71D
330
131B
100
AcDbEntity
  8
swietlik poliweglan
100
AcDbCircle
 10
1073.648910636955
 20
-93.93021847069792
 30
0.0
 40
245.2835094334717
100
AcDbArc
 50
89.99999999999999
 51
144.6252481561239
  0
LINE
  5
71E
330
131B
100
AcDbEntity
  8
swietlik poliweglan
100
AcDbLine
 10
902.5479300041957
 20
81.82089653716787
 30
0.0
 11
873.6489106369554
 21
48.06978152930219
 31
0.0
  0
LINE
  5
71F
330
131B
100
AcDbEntity
  8
profile aluminiowe
100
AcDbLine
 10
873.6489106369554
 20
48.06978152930174
 30
0.0
 11
877.4221030901836
 21
53.23988718939279
 31
0.0
  0
ARC
  5
720
330
131B
100
AcDbEntity
  8
swietlik poliweglan
100
AcDbCircle
 10
1022.146830245371
 20
-147.8994643900226
 30
0.0
 40
245.2835094334717
100
AcDbArc
 50
35.37475184387608
 51
90.0
  0
ARC
  5
721
330
131B
100
AcDbEntity
  8
swietlik poliweglan
100
AcDbCircle
 10
1072.981317440077
 20
-94.0222821863365
 30
0.0
 40
245.2835094334721
100
AcDbArc
 50
35.37475184387621
 51
144.6252481561238
  0
ARC
  5
722
330
131B
100
AcDbEntity
  8
swietlik poliweglan
100
AcDbCircle
 10
1078.616195545419
 20
-88.01174554063869
 30
0.0
 40
245.2835094334721
100
AcDbArc
 50
35.37475184387621
 51
144.6252481561238
  0
LINE
  5
723
330
131B
100
AcDbEntity
  8
swietlik poliweglan
100
AcDbLine
 10
1227.762308774832
 20
0.0903793747349937
 30
0.0
 11
1278.476211722907
 21
54.1852091860161
 31
0.0
  0
HATCH
  5
724
330
131B
100
AcDbEntity
  8
profile aluminiowe
100
AcDbHatch
 10
0.0
 20
0.0
 30
0.0
210
0.0
220
0.0
230
1.0
  2
SOLID
 70
     1
 71
     0
 91
        1
 92
        0
 93
        4
 72
     1
 10
1223.248910636955
 20
6.269781529302008
 11
1268.448910636956
 21
54.46978152930194
 72
     1
 10
1268.448910636956
 20
54.46978152930194
 11
1272.841333617566
 21
48.1746725403184
 72
     1
 10
1272.841333617566
 20
48.1746725403184
 11
1227.902292597343
 21
-0.1065753519185364
 72
     1
 10
1227.902292597343
 20
-0.1065753519185364
 11
1223.248910636955
 21
6.269781529302008
 97
        0
 75
     0
 76
     1
 98
        0
  0
ARC
  5
725
330
131B
100
AcDbEntity
  8
swietlik poliweglan
100
AcDbCircle
 10
1033.537170702684
 20
-136.0960387062212
 30
0.0
 40
245.2835094334721
100
AcDbArc
 50
37.21741676843762
 51
144.6252481561238
  0
ARC
  5
726
330
131B
100
AcDbEntity
  8
swietlik poliweglan
100
AcDbCircle
 10
1033.537170702684
 20
-136.0960387062213
 30
0.0
 40
245.2835094334721
100
AcDbArc
 50
37.21741676843763
 51
144.6252481561238
  0
ARC
  5
727
330
131B
100
AcDbEntity
  8
swietlik poliweglan
100
AcDbCircle
 10
1039.172048808026
 20
-130.0855020605235
 30
0.0
 40
245.2835094334721
100
AcDbArc
 50
37.21714738222688
 51
144.6252481561238
  0
ARC
  5
728
330
131B
100
AcDbEntity
  8
swietlik poliweglan
100
AcDbCircle
 10
1050.44180501871
 20
-118.0644287691277
 30
0.0
 40
245.2835094334721
100
AcDbArc
 50
37.21660860916117
 51
144.6252481561238
  0
ARC
  5
729
330
131B
100
AcDbEntity
  8
swietlik poliweglan
100
AcDbCircle
 10
1056.076683124052
 20
-112.05389212343
 30
0.0
 40
245.2835094334721
100
AcDbArc
 50
37.2163392223062
 51
144.6252481561238
  0
LINE
  5
72A
330
131B
100
AcDbEntity
  8
swietlik poliweglan
100
AcDbLine
 10
1268.448910636956
 20
54.46978152930194
 30
0.0
 11
1223.248910636955
 21
6.269781529302008
 31
0.0
  0
ARC
  5
72B
330
131B
100
AcDbEntity
  8
swietlik poliweglan
100
AcDbCircle
 10
1039.172048808026
 20
-130.0855020605235
 30
0.0
 40
245.2835094334721
100
AcDbArc
 50
37.21714738222686
 51
144.6252481561238
  0
ARC
  5
72C
330
131B
100
AcDbEntity
  8
swietlik poliweglan
100
AcDbCircle
 10
1044.806926913368
 20
-124.0749654148256
 30
0.0
 40
245.2835094334721
100
AcDbArc
 50
37.21687799580138
 51
144.6252481561238
  0
ARC
  5
72D
330
131B
100
AcDbEntity
  8
swietlik poliweglan
100
AcDbCircle
 10
1044.806926913368
 20
-124.0749654148256
 30
0.0
 40
245.2835094334721
100
AcDbArc
 50
37.21687799580135
 51
144.6252481561238
  0
ARC
  5
72E
330
131B
100
AcDbEntity
  8
swietlik poliweglan
100
AcDbCircle
 10
1050.44180501871
 20
-118.0644287691279
 30
0.0
 40
245.2835094334721
100
AcDbArc
 50
37.21660860916113
 51
144.6252481561238
  0
ARC
  5
72F
330
131B
100
AcDbEntity
  8
swietlik poliweglan
100
AcDbCircle
 10
1056.076683124052
 20
-112.0538921234298
 30
0.0
 40
245.2835094334721
100
AcDbArc
 50
37.21633922230613
 51
144.6252481561238
  0
ARC
  5
730
330
131B
100
AcDbEntity
  8
swietlik poliweglan
100
AcDbCircle
 10
1061.711561229394
 20
-106.0433554777322
 30
0.0
 40
245.2835094334721
100
AcDbArc
 50
37.21606983523638
 51
144.6252481561238
  0
ARC
  5
731
330
131B
100
AcDbEntity
  8
swietlik poliweglan
100
AcDbCircle
 10
1061.711561229394
 20
-106.0433554777322
 30
0.0
 40
245.2835094334721
100
AcDbArc
 50
37.2160698352364
 51
144.6252481561238
  0
ARC
  5
732
330
131B
100
AcDbEntity
  8
swietlik poliweglan
100
AcDbCircle
 10
1067.346439334736
 20
-100.0328188320343
 30
0.0
 40
245.2835094334721
100
AcDbArc
 50
37.21580044795188
 51
144.6252481561238
  0
ARC
  5
733
330
131B
100
AcDbEntity
  8
swietlik poliweglan
100
AcDbCircle
 10
1067.346439334736
 20
-100.0328188320343
 30
0.0
 40
245.2835094334721
100
AcDbArc
 50
37.21580044795192
 51
144.6252481561238
  0
ARC
  5
734
330
131B
100
AcDbEntity
  8
swietlik poliweglan
100
AcDbCircle
 10
1027.781708350713
 20
-141.8889277443254
 30
0.0
 40
245.2835094334721
100
AcDbArc
 50
37.16156877240307
 51
144.6252481561238
  0
ARC
  5
735
330
131B
100
AcDbEntity
  8
swietlik poliweglan
100
AcDbCircle
 10
1027.902292597343
 20
-142.1065753519192
 30
0.0
 40
245.2835094334721
100
AcDbArc
 50
37.21768615443368
 51
144.6252481561238
  0
ARC
  5
736
330
131B
100
AcDbEntity
  8
swietlik poliweglan
100
AcDbCircle
 10
1073.664943000233
 20
-88.86846051577243
 30
0.0
 40
241.7685978310212
100
AcDbArc
 50
36.34558698301806
 51
143.780376703602
  0
ARC
  5
737
330
131B
100
AcDbEntity
  8
swietlik poliweglan
100
AcDbCircle
 10
1072.981317440077
 20
-94.0222821863365
 30
0.0
 40
245.2835094334721
100
AcDbArc
 50
37.21553106045261
 51
144.6252481561238
  0
ARC
  5
738
330
131B
100
AcDbEntity
  8
swietlik poliweglan
100
AcDbCircle
 10
1050.44180501871
 20
-118.0644287691277
 30
0.0
 40
241.2835094334721
100
AcDbArc
 50
37.0555210771218
 51
130.4194221345177
  0
ARC
  5
739
330
131B
100
AcDbEntity
  8
swietlik poliweglan
100
AcDbCircle
 10
1056.076683124052
 20
-112.0538921234298
 30
0.0
 40
241.2835094334721
100
AcDbArc
 50
37.05524709267541
 51
133.7469261084245
  0
ARC
  5
73A
330
131B
100
AcDbEntity
  8
swietlik poliweglan
100
AcDbCircle
 10
1072.981317440077
 20
-94.0222821863365
 30
0.0
 40
241.2835094334721
100
AcDbArc
 50
37.05442513798054
 51
139.6893680764095
  0
ARC
  5
73B
330
131B
100
AcDbEntity
  8
swietlik poliweglan
100
AcDbCircle
 10
1061.711561229394
 20
-106.0433554777322
 30
0.0
 40
241.2835094334721
100
AcDbArc
 50
37.05497310800307
 51
136.1290274464214
  0
ARC
  5
73C
330
131B
100
AcDbEntity
  8
swietlik poliweglan
100
AcDbCircle
 10
1067.346439334736
 20
-100.0328188320343
 30
0.0
 40
241.2835094334721
100
AcDbArc
 50
37.05469912310477
 51
138.042273152305
  0
ARC
  5
73D
330
131B
100
AcDbEntity
  8
swietlik poliweglan
100
AcDbCircle
 10
1039.172048808026
 20
-130.0855020605235
 30
0.0
 40
249.2835094334721
100
AcDbArc
 50
37.37298329737
 51
125.1681037224923
  0
ARC
  5
73E
330
131B
100
AcDbEntity
  8
swietlik poliweglan
100
AcDbCircle
 10
1033.537170702684
 20
-136.0960387062212
 30
0.0
 40
249.2835094334721
100
AcDbArc
 50
37.37324823982384
 51
124.8259513486009
  0
ARC
  5
73F
330
131B
100
AcDbEntity
  8
swietlik poliweglan
100
AcDbCircle
 10
1027.781708350713
 20
-141.8889277443254
 30
0.0
 40
249.2835094334721
100
AcDbArc
 50
37.31832165253841
 51
124.2849618564732
  0
LINE
  5
740
330
131B
100
AcDbEntity
  8
profile aluminiowe
100
AcDbLine
 10
1222.146830245371
 20
-5.899464390022786
 30
0.0
 11
1207.258051960263
 21
-5.93104758960601
 31
0.0
  0
LINE
  5
741
330
131B
100
AcDbEntity
  8
profile aluminiowe
100
AcDbLine
 10
1207.258051960263
 20
-5.93104758960601
 30
0.0
 11
837.0356085304793
 21
-5.931047589605669
 31
0.0
  0
LINE
  5
742
330
131B
100
AcDbEntity
  8
profile aluminiowe
100
AcDbLine
 10
837.0356085304793
 20
-5.931047589605669
 30
0.0
 11
822.1244099240903
 21
-5.931047589605669
 31
0.0
  0
INSERT
  5
743
330
131B
100
AcDbEntity
  8
swietlik poliweglan
100
AcDbBlockReference
  2
pole
 10
1278.476211722908
 20
54.18520918601621
 30
0.0
 41
0.2
 42
0.2
 43
0.2
  0
INSERT
  5
744
330
131B
100
AcDbEntity
  8
swietlik poliweglan
100
AcDbBlockReference
  2
pole
 10
1329.050130848473
 20
108.4769937239503
 30
0.0
 41
0.2
 42
0.2
 43
0.2
  0
LINE
  5
745
330
131B
100
AcDbEntity
  8
podstawa swietlika
100
AcDbLine
 10
829.5800092272848
 20
-5.931047589605896
 30
0.0
 11
1214.702441102817
 21
-5.915255989814455
 31
0.0
  0
HATCH
  5
120E
330
131B
100
AcDbEntity
  8
podstawa swietlika
100
AcDbHatch
 10
0.0
 20
0.0
 30
0.0
210
0.0
220
0.0
230
1.0
  2
SOLID
 70
     1
 71
     0
 91
        1
 92
        0
 93
        4
 72
     1
 10
829.5800092272848
 20
-5.931047589605896
 11
829.6489106369554
 21
-33.9302184706977
 72
     1
 10
829.6489106369554
 20
-33.9302184706977
 11
1213.0
 21
-34.0
 72
     1
 10
1213.0
 20
-34.0
 11
1213.0
 21
-6.0
 72
     1
 10
1213.0
 20
-6.0
 11
829.5800092272848
 21
-5.931047589605896
 97
        0
 75
     0
 76
     1
 98
        0
  0
HATCH
  5
747
330
131B
100
AcDbEntity
  8
profile aluminiowe
100
AcDbHatch
 10
0.0
 20
0.0
 30
0.0
210
0.0
220
0.0
230
1.0
  2
SOLID
 70
     1
 71
     0
 91
        1
 92
        0
 93
        4
 72
     1
 10
1222.146830245371
 20
-5.899464390022786
 11
1216.486660280554
 21
-5.837442750974219
 72
     2
 10
1022.263353857205
 20
-154.9530622730092
 40
244.8635553598024
 50
37.51537722665644
 51
142.5435993811152
 73
     1
 72
     1
 10
827.8866602804983
 20
-6.037442750978869
 11
822.1244099240903
 21
-5.931047589605669
 72
     2
 10
1022.146830245371
 20
-147.8994643900232
 40
245.2835094334721
 50
215.3657044308115
 51
324.6252481561238
 73
     0
 97
        0
 75
     0
 76
     1
 98
        0
  0
HATCH
  5
1214
330
131B
100
AcDbEntity
  8
profile aluminiowe
100
AcDbHatch
 10
0.0
 20
0.0
 30
0.0
210
0.0
220
0.0
230
1.0
  2
SOLID
 70
     1
 71
     0
 91
        1
 92
        0
 93
        4
 72
     1
 10
1216.486660280529
 20
-5.837442750992977
 11
827.8866602804983
 21
-6.037442750978698
 72
     1
 10
827.8866602804983
 20
-6.037442750978698
 11
833.8866602805228
 21
1.962557249002657
 72
     1
 10
833.8866602805228
 20
1.962557249002657
 11
1210.0
 21
2.0
 72
     1
 10
1210.0
 20
2.0
 11
1216.486660280529
 21
-5.837442750992977
 97
        0
 75
     0
 76
     1
 98
        0
  0
HATCH
  5
749
330
131B
100
AcDbEntity
  8
swietlik poliweglan
100
AcDbHatch
 10
0.0
 20
0.0
 30
0.0
210
0.0
220
0.0
230
1.0
  2
ANSI31
 70
     0
 71
     0
 91
        1
 92
        0
 93
        2
 72
     1
 10
1209.886660280525
 20
1.962557249004362
 11
833.8866602805242
 21
1.962557249001179
 72
     2
 10
1021.886660280522
 20
-163.2012107351633
 40
250.2460194583075
 50
221.3002979803746
 51
318.6997020196256
 73
     0
 97
        0
 75
     0
 76
     1
 52
45.0
 41
1.781686377792876
 77
     0
 78
     1
 53
90.0
 43
0.0
 44
0.0
 45
-5.656854249492381
 46
0.0000000000000003
 79
     0
 98
        0
1001
ACAD
1010
0.0
1020
0.0
1030
0.0
  0
ARC
  5
74A
330
131B
100
AcDbEntity
  8
0
100
AcDbCircle
 10
1022.146830245371
 20
-147.8994643900232
 30
0.0
 40
245.2835094334721
100
AcDbArc
 50
35.37475184387621
 51
144.6342955691885
  0
MTEXT
  5
74B
330
131B
100
AcDbEntity
  8
wymiary
100
AcDbMText
 10
1148.0
 20
-64.00000000000176
 30
0.0
 40
8.0
 41
20.0
 46
0.0
 71
     7
 72
     1
  1
podstawa\~świetlika
  7
textstyle11
 73
     1
 44
1.0
  0
LEADER
  5
751
330
131B
100
AcDbEntity
  8
wymiary
100
AcDbLeader
  3
QCADDimStyle
 76
     3
 10
1117.15894324174
 20
-23.80901150810905
 30
0.0
 10
1140.0
 20
-70.0
 30
0.0
 10
1253.15894324174
 20
-69.80901150810917
 30
0.0
  0
LEADER
  5
753
330
131B
100
AcDbEntity
  8
wymiary
100
AcDbLeader
  3
QCADDimStyle
 76
     3
 10
1317.976316541365
 20
148.1962199692317
 30
0.0
 10
1349.886660280523
 20
81.96255724900266
 30
0.0
 10
1497.886660280523
 20
81.96255724900232
 30
0.0
  0
ARC
  5
754
330
131B
100
AcDbEntity
  8
swietlik poliweglan
100
AcDbCircle
 10
1185.552514529851
 20
26.73286002612974
 30
0.0
 40
245.2835094334721
100
AcDbArc
 50
37.21714738222688
 51
144.6252481561238
  0
ARC
  5
755
330
131B
100
AcDbEntity
  8
swietlik poliweglan
100
AcDbCircle
 10
1196.822270740534
 20
38.75393331752537
 30
0.0
 40
245.2835094334721
100
AcDbArc
 50
37.21660860916117
 51
144.6252481561238
  0
ARC
  5
756
330
131B
100
AcDbEntity
  8
swietlik poliweglan
100
AcDbCircle
 10
1191.187392635192
 20
32.74339667182744
 30
0.0
 40
245.2835094334721
100
AcDbArc
 50
37.21687799580138
 51
144.6252481561238
  0
ARC
  5
757
330
131B
100
AcDbEntity
  8
swietlik poliweglan
100
AcDbCircle
 10
1191.187392635192
 20
32.74339667182767
 30
0.0
 40
245.2835094334721
100
AcDbArc
 50
37.21687799580135
 51
144.6252481561238
  0
ARC
  5
758
330
131B
100
AcDbEntity
  8
swietlik poliweglan
100
AcDbCircle
 10
1196.822270740534
 20
38.75393331752537
 30
0.0
 40
241.2835094334721
100
AcDbArc
 50
37.0555210771218
 51
130.4194221345177
  0
ARC
  5
759
330
131B
100
AcDbEntity
  8
swietlik poliweglan
100
AcDbCircle
 10
1185.552514529851
 20
26.73286002612974
 30
0.0
 40
249.2835094334721
100
AcDbArc
 50
37.37298329737
 51
125.1681037224923
  0
ARC
  5
75A
330
131B
100
AcDbEntity
  8
swietlik poliweglan
100
AcDbCircle
 10
1179.917636424509
 20
20.72232338043193
 30
0.0
 40
249.2835094334721
100
AcDbArc
 50
37.37324823982384
 51
124.8259513486009
  0
HATCH
  5
75B
330
131B
100
AcDbEntity
  8
profile aluminiowe
100
AcDbHatch
 10
0.0
 20
0.0
 30
0.0
210
0.0
220
0.0
230
1.0
  2
SOLID
 70
     1
 71
     0
 91
        1
 92
        0
 93
        4
 72
     1
 10
1397.637031617931
 20
181.9692823907487
 11
1392.154928268547
 21
187.1087542807961
 72
     1
 10
1392.154928268547
 20
187.1087542807961
 11
1369.546989809435
 21
163.0002889328047
 72
     1
 10
1369.546989809435
 20
163.0002889328047
 11
1375.031711016044
 21
157.8569404154031
 72
     1
 10
1375.031711016044
 20
157.8569404154031
 11
1397.637031617931
 21
181.9692823907487
 97
        0
 75
     0
 76
     1
 98
        0
  0
MTEXT
  5
75C
330
131B
100
AcDbEntity
  8
wymiary
100
AcDbMText
 10
1357.886660280523
 20
87.96255724899983
 30
0.0
 40
8.0
 41
20.0
 46
0.0
 71
     7
 72
     1
  1
świetlik dachowy\Ppoliwęglanowo-aluminiowy
  7
textstyle12
 73
     1
 44
1.0
  0
LINE
  5
B1D
330
131B
100
AcDbEntity
  8
swietlik poliweglan
100
AcDbLine
 10
949.9811639878118
 20
398.2800975986438
 30
0.0
 11
1030.0
 21
398.280097598644
 31
0.0
  0
LINE
  5
B1F
330
131B
100
AcDbEntity
  8
profile aluminiowe
100
AcDbLine
 10
913.0918481266888
 20
404.655995057965
 30
0.0
 11
913.0918481266892
 21
407.055995057965
 31
0.0
  0
LINE
  5
B20
330
131B
100
AcDbEntity
  8
profile aluminiowe
100
AcDbLine
 10
913.0918481266892
 20
407.055995057965
 30
0.0
 11
904.291848126689
 21
407.0559950579649
 31
0.0
  0
LINE
  5
B21
330
131B
100
AcDbEntity
  8
profile aluminiowe
100
AcDbLine
 10
904.291848126689
 20
407.0559950579649
 30
0.0
 11
904.2918481266892
 21
404.6559950579652
 31
0.0
  0
LINE
  5
B22
330
131B
100
AcDbEntity
  8
profile aluminiowe
100
AcDbLine
 10
904.2918481266892
 20
404.6559950579652
 30
0.0
 11
907.0918481266891
 21
404.655995057965
 31
0.0
  0
LINE
  5
B23
330
131B
100
AcDbEntity
  8
profile aluminiowe
100
AcDbLine
 10
910.291848126689
 20
404.655995057965
 30
0.0
 11
913.0918481266888
 21
404.655995057965
 31
0.0
  0
LINE
  5
B24
330
131B
100
AcDbEntity
  8
profile aluminiowe
100
AcDbLine
 10
937.391848126689
 20
404.655995057965
 30
0.0
 11
937.6918481266889
 21
404.355995057965
 31
0.0
  0
LINE
  5
B25
330
131B
100
AcDbEntity
  8
profile aluminiowe
100
AcDbLine
 10
907.0918481266891
 20
404.655995057965
 30
0.0
 11
906.5886515153355
 21
403.273473730725
 31
0.0
  0
ARC
  5
B26
330
131B
100
AcDbEntity
  8
profile aluminiowe
100
AcDbCircle
 10
906.1188052049426
 20
403.4444838023878
 30
0.0
 40
0.5
100
AcDbArc
 50
270.0
 51
339.9999999999999
  0
LINE
  5
B27
330
131B
100
AcDbEntity
  8
profile aluminiowe
100
AcDbLine
 10
910.291848126689
 20
404.655995057965
 30
0.0
 11
910.7949899497463
 21
403.2736242603315
 31
0.0
  0
LINE
  5
B28
330
131B
100
AcDbEntity
  8
profile aluminiowe
100
AcDbLine
 10
937.6918481266891
 20
402.955995057965
 30
0.0
 11
911.2650512063312
 21
402.9446343781962
 31
0.0
  0
ARC
  5
B29
330
131B
100
AcDbEntity
  8
profile aluminiowe
100
AcDbCircle
 10
911.2648362601394
 20
403.4446343319943
 30
0.0
 40
0.5
100
AcDbArc
 50
200.0000000000001
 51
270.0246310199842
  0
LINE
  5
B2A
330
131B
100
AcDbEntity
  8
profile aluminiowe
100
AcDbLine
 10
915.191848126689
 20
404.655995057965
 30
0.0
 11
937.391848126689
 21
404.655995057965
 31
0.0
  0
ARC
  5
B2B
330
131B
100
AcDbEntity
  8
profile aluminiowe
100
AcDbCircle
 10
915.191848126689
 20
405.155995057965
 30
0.0
 40
0.5
100
AcDbArc
 50
180.0
 51
270.0
  0
LINE
  5
B2C
330
131B
100
AcDbEntity
  8
profile aluminiowe
100
AcDbLine
 10
914.6918481266889
 20
405.155995057965
 30
0.0
 11
914.691848126689
 21
408.155995057965
 31
0.0
  0
ARC
  5
B2D
330
131B
100
AcDbEntity
  8
profile aluminiowe
100
AcDbCircle
 10
914.191848126689
 20
408.155995057965
 30
0.0
 40
0.5
100
AcDbArc
 50
0.0
 51
89.99999999999999
  0
LINE
  5
B2E
330
131B
100
AcDbEntity
  8
profile aluminiowe
100
AcDbLine
 10
903.1918481266891
 20
408.6559950579651
 30
0.0
 11
914.191848126689
 21
408.655995057965
 31
0.0
  0
ARC
  5
B2F
330
131B
100
AcDbEntity
  8
profile aluminiowe
100
AcDbCircle
 10
903.191848126689
 20
408.155995057965
 30
0.0
 40
0.5
100
AcDbArc
 50
89.99999999999999
 51
180.0
  0
LINE
  5
B30
330
131B
100
AcDbEntity
  8
profile aluminiowe
100
AcDbLine
 10
902.691848126689
 20
403.4444838023878
 30
0.0
 11
902.691848126689
 21
408.155995057965
 31
0.0
  0
LINE
  5
B31
330
131B
100
AcDbEntity
  8
profile aluminiowe
100
AcDbLine
 10
906.1188052049424
 20
402.9444838023879
 30
0.0
 11
903.191848126689
 21
402.9444838023879
 31
0.0
  0
ARC
  5
B32
330
131B
100
AcDbEntity
  8
profile aluminiowe
100
AcDbCircle
 10
903.191848126689
 20
403.4444838023879
 30
0.0
 40
0.5
100
AcDbArc
 50
180.0
 51
270.0
  0
LINE
  5
B33
330
131B
100
AcDbEntity
  8
profile aluminiowe
100
AcDbLine
 10
962.2918481266888
 20
404.6559950579649
 30
0.0
 11
962.2918481266888
 21
407.055995057965
 31
0.0
  0
LINE
  5
B34
330
131B
100
AcDbEntity
  8
profile aluminiowe
100
AcDbLine
 10
962.2918481266888
 20
407.055995057965
 30
0.0
 11
971.091848126689
 21
407.0559950579652
 31
0.0
  0
LINE
  5
B35
330
131B
100
AcDbEntity
  8
profile aluminiowe
100
AcDbLine
 10
971.091848126689
 20
407.0559950579652
 30
0.0
 11
971.091848126689
 21
404.6559950579649
 31
0.0
  0
LINE
  5
B36
330
131B
100
AcDbEntity
  8
profile aluminiowe
100
AcDbLine
 10
971.091848126689
 20
404.6559950579649
 30
0.0
 11
968.291848126689
 21
404.6559950579652
 31
0.0
  0
LINE
  5
B37
330
131B
100
AcDbEntity
  8
profile aluminiowe
100
AcDbLine
 10
965.091848126689
 20
404.6559950579652
 30
0.0
 11
962.2918481266888
 21
404.6559950579649
 31
0.0
  0
LINE
  5
B39
330
131B
100
AcDbEntity
  8
profile aluminiowe
100
AcDbLine
 10
968.291848126689
 20
404.6559950579652
 30
0.0
 11
968.7950447380426
 21
403.273473730725
 31
0.0
  0
ARC
  5
B3A
330
131B
100
AcDbEntity
  8
profile aluminiowe
100
AcDbCircle
 10
969.2648910484354
 20
403.4444838023878
 30
0.0
 40
0.5
100
AcDbArc
 50
200.0000000000001
 51
270.0
  0
LINE
  5
B3B
330
131B
100
AcDbEntity
  8
profile aluminiowe
100
AcDbLine
 10
965.091848126689
 20
404.6559950579652
 30
0.0
 11
964.5887063036316
 21
403.2736242603315
 31
0.0
  0
LINE
  5
B3C
330
131B
100
AcDbEntity
  8
profile aluminiowe
100
AcDbLine
 10
937.6918481266891
 20
402.955995057965
 30
0.0
 11
964.1186450470468
 21
402.9446343781962
 31
0.0
  0
ARC
  5
B3D
330
131B
100
AcDbEntity
  8
profile aluminiowe
100
AcDbCircle
 10
964.1188599932389
 20
403.4446343319945
 30
0.0
 40
0.5
100
AcDbArc
 50
269.9753689800158
 51
339.9999999999999
  0
LINE
  5
B3E
330
131B
100
AcDbEntity
  8
profile aluminiowe
100
AcDbLine
 10
960.1918481266889
 20
404.6559950579649
 30
0.0
 11
937.9918481266891
 21
404.655995057965
 31
0.0
  0
ARC
  5
B3F
330
131B
100
AcDbEntity
  8
profile aluminiowe
100
AcDbCircle
 10
960.1918481266889
 20
405.155995057965
 30
0.0
 40
0.5
100
AcDbArc
 50
270.0
 51
0.0
  0
LINE
  5
B40
330
131B
100
AcDbEntity
  8
profile aluminiowe
100
AcDbLine
 10
960.6918481266889
 20
405.155995057965
 30
0.0
 11
960.6918481266891
 21
408.1559950579651
 31
0.0
  0
ARC
  5
B41
330
131B
100
AcDbEntity
  8
profile aluminiowe
100
AcDbCircle
 10
961.1918481266889
 20
408.1559950579651
 30
0.0
 40
0.5
100
AcDbArc
 50
89.99999999999999
 51
180.0
  0
LINE
  5
B42
330
131B
100
AcDbEntity
  8
profile aluminiowe
100
AcDbLine
 10
972.1918481266889
 20
408.655995057965
 30
0.0
 11
961.1918481266891
 21
408.655995057965
 31
0.0
  0
ARC
  5
B43
330
131B
100
AcDbEntity
  8
profile aluminiowe
100
AcDbCircle
 10
972.1918481266891
 20
408.1559950579648
 30
0.0
 40
0.5
100
AcDbArc
 50
0.0
 51
89.99999999999999
  0
LINE
  5
B44
330
131B
100
AcDbEntity
  8
profile aluminiowe
100
AcDbLine
 10
972.6918481266889
 20
403.4444838023878
 30
0.0
 11
972.6918481266891
 21
408.1559950579651
 31
0.0
  0
LINE
  5
B45
330
131B
100
AcDbEntity
  8
profile aluminiowe
100
AcDbLine
 10
969.2648910484354
 20
402.9444838023878
 30
0.0
 11
972.1918481266889
 21
402.9444838023879
 31
0.0
  0
ARC
  5
B46
330
131B
100
AcDbEntity
  8
profile aluminiowe
100
AcDbCircle
 10
972.1918481266891
 20
403.4444838023879
 30
0.0
 40
0.5
100
AcDbArc
 50
270.0
 51
0.0
  0
HATCH
  5
B47
330
131B
100
AcDbEntity
  8
profile alu kresk
100
AcDbHatch
 10
0.0
 20
0.0
 30
0.0
210
0.0
220
0.0
230
1.0
  2
ANSI31
 70
     0
 71
     0
 91
        1
 92
        0
 93
       40
 72
     1
 10
913.0918481266888
 20
404.655995057965
 11
913.0918481266892
 21
407.055995057965
 72
     1
 10
913.0918481266892
 20
407.055995057965
 11
904.291848126689
 21
407.0559950579649
 72
     1
 10
904.291848126689
 20
407.0559950579649
 11
904.2918481266892
 21
404.6559950579652
 72
     1
 10
904.2918481266892
 20
404.6559950579652
 11
907.0918481266891
 21
404.655995057965
 72
     1
 10
907.0918481266891
 20
404.655995057965
 11
906.5886515153355
 21
403.273473730725
 72
     2
 10
906.1188052049426
 20
403.4444838023878
 40
0.5
 50
20.00000000000008
 51
90.0
 73
     0
 72
     1
 10
906.1188052049426
 20
402.9444838023878
 11
903.191848126689
 21
402.9444838023879
 72
     2
 10
903.191848126689
 20
403.4444838023879
 40
0.5
 50
90.0
 51
180.0
 73
     0
 72
     1
 10
902.691848126689
 20
403.4444838023879
 11
902.691848126689
 21
408.155995057965
 72
     2
 10
903.191848126689
 20
408.155995057965
 40
0.5
 50
180.0
 51
270.0
 73
     0
 72
     1
 10
903.191848126689
 20
408.655995057965
 11
914.191848126689
 21
408.655995057965
 72
     2
 10
914.191848126689
 20
408.155995057965
 40
0.5
 50
270.0
 51
360.0
 73
     0
 72
     1
 10
914.691848126689
 20
408.155995057965
 11
914.6918481266889
 21
405.155995057965
 72
     2
 10
915.191848126689
 20
405.155995057965
 40
0.5
 50
180.0
 51
270.0
 73
     1
 72
     1
 10
915.191848126689
 20
404.655995057965
 11
937.391848126689
 21
404.655995057965
 72
     1
 10
937.391848126689
 20
404.655995057965
 11
937.6918481266889
 21
404.355995057965
 72
     1
 10
937.6918481266889
 20
404.355995057965
 11
937.9918481266891
 21
404.655995057965
 72
     1
 10
937.9918481266891
 20
404.655995057965
 11
960.1918481266889
 21
404.6559950579649
 72
     2
 10
960.1918481266889
 20
405.155995057965
 40
0.5
 50
270.0
 51
360.0
 73
     1
 72
     1
 10
960.6918481266889
 20
405.155995057965
 11
960.6918481266891
 21
408.1559950579651
 72
     2
 10
961.1918481266889
 20
408.1559950579651
 40
0.5
 50
180.0
 51
270.0
 73
     0
 72
     1
 10
961.1918481266889
 20
408.6559950579651
 11
972.1918481266889
 21
408.655995057965
 72
     2
 10
972.1918481266891
 20
408.1559950579648
 40
0.5
 50
270.0
 51
360.0
 73
     0
 72
     1
 10
972.6918481266891
 20
408.1559950579648
 11
972.6918481266889
 21
403.4444838023878
 72
     2
 10
972.1918481266891
 20
403.4444838023879
 40
0.5
 50
0.0
 51
90.0
 73
     0
 72
     1
 10
972.1918481266891
 20
402.9444838023879
 11
969.2648910484354
 21
402.9444838023878
 72
     2
 10
969.2648910484354
 20
403.4444838023878
 40
0.5
 50
90.0
 51
159.9999999999999
 73
     0
 72
     1
 10
968.7950447380424
 20
403.273473730725
 11
968.291848126689
 21
404.6559950579652
 72
     1
 10
968.291848126689
 20
404.6559950579652
 11
971.091848126689
 21
404.6559950579649
 72
     1
 10
971.091848126689
 20
404.6559950579649
 11
971.091848126689
 21
407.0559950579652
 72
     1
 10
971.091848126689
 20
407.0559950579652
 11
962.2918481266888
 21
407.055995057965
 72
     1
 10
962.2918481266888
 20
407.055995057965
 11
962.2918481266888
 21
404.6559950579649
 72
     1
 10
962.2918481266888
 20
404.6559950579649
 11
965.091848126689
 21
404.6559950579652
 72
     1
 10
965.091848126689
 20
404.6559950579652
 11
964.5887063036316
 21
403.2736242603315
 72
     2
 10
964.1188599932389
 20
403.4446343319945
 40
0.5
 50
20.00000000000008
 51
90.02463101998418
 73
     0
 72
     1
 10
964.118645047047
 20
402.9446343781964
 11
937.6918481266891
 21
402.955995057965
 72
     1
 10
937.6918481266891
 20
402.955995057965
 11
911.2650512063312
 21
402.9446343781962
 72
     2
 10
911.2648362601394
 20
403.4446343319943
 40
0.5
 50
89.97536898001582
 51
159.9999999999999
 73
     0
 72
     1
 10
910.7949899497464
 20
403.2736242603314
 11
910.291848126689
 21
404.655995057965
 72
     1
 10
910.291848126689
 20
404.655995057965
 11
913.0918481266888
 21
404.655995057965
 97
        0
 75
     0
 76
     1
 52
0.0
 41
0.445421594448219
 77
     0
 78
     1
 53
45.0
 43
0.0
 44
0.0
 45
-1.0
 46
1.0
 79
     0
 98
        0
1001
ACAD
1010
0.0
1020
0.0
1030
0.0
  0
LINE
  5
B48
330
131B
100
AcDbEntity
  8
uszczelka EPDM
100
AcDbLine
 10
969.9918481266891
 20
404.8559950579649
 30
0.0
 11
969.6918481266891
 21
406.8559950579651
 31
0.0
  0
LINE
  5
B49
330
131B
100
AcDbEntity
  8
uszczelka EPDM
100
AcDbLine
 10
969.6918481266891
 20
406.8559950579651
 30
0.0
 11
963.9918481266891
 21
406.855995057965
 31
0.0
  0
LINE
  5
B4A
330
131B
100
AcDbEntity
  8
uszczelka EPDM
100
AcDbLine
 10
963.9918481266891
 20
406.855995057965
 30
0.0
 11
963.591848126689
 21
404.8559950579651
 31
0.0
  0
LINE
  5
B4B
330
131B
100
AcDbEntity
  8
uszczelka EPDM
100
AcDbLine
 10
963.591848126689
 20
404.8559950579651
 30
0.0
 11
965.3918481266892
 21
404.8559950579649
 31
0.0
  0
LINE
  5
B4C
330
131B
100
AcDbEntity
  8
uszczelka EPDM
100
AcDbLine
 10
965.3918481266892
 20
404.8559950579649
 30
0.0
 11
964.6918481266891
 21
402.755995057965
 31
0.0
  0
LINE
  5
B4D
330
131B
100
AcDbEntity
  8
uszczelka EPDM
100
AcDbLine
 10
964.6918481266891
 20
402.755995057965
 30
0.0
 11
962.6918481266891
 21
402.755995057965
 31
0.0
  0
LINE
  5
B4E
330
131B
100
AcDbEntity
  8
uszczelka EPDM
100
AcDbLine
 10
962.6918481266891
 20
402.755995057965
 30
0.0
 11
962.6918481266889
 21
401.855995057965
 31
0.0
  0
LINE
  5
B4F
330
131B
100
AcDbEntity
  8
uszczelka EPDM
100
AcDbLine
 10
977.6918481266889
 20
401.8559950579651
 30
0.0
 11
972.8918481266892
 21
405.755995057965
 31
0.0
  0
LINE
  5
B50
330
131B
100
AcDbEntity
  8
uszczelka EPDM
100
AcDbLine
 10
972.8918481266892
 20
405.755995057965
 30
0.0
 11
972.8918481266892
 21
402.755995057965
 31
0.0
  0
LINE
  5
B51
330
131B
100
AcDbEntity
  8
uszczelka EPDM
100
AcDbLine
 10
972.8918481266892
 20
402.755995057965
 30
0.0
 11
968.7918481266893
 21
402.755995057965
 31
0.0
  0
LINE
  5
B52
330
131B
100
AcDbEntity
  8
uszczelka EPDM
100
AcDbLine
 10
968.7918481266893
 20
402.755995057965
 30
0.0
 11
967.9918481266891
 21
404.8559950579649
 31
0.0
  0
LINE
  5
B53
330
131B
100
AcDbEntity
  8
uszczelka EPDM
100
AcDbLine
 10
967.9918481266891
 20
404.8559950579649
 30
0.0
 11
969.9918481266891
 21
404.8559950579649
 31
0.0
  0
HATCH
  5
B54
330
131B
100
AcDbEntity
  8
uszczelka EPDM
100
AcDbHatch
 10
0.0
 20
0.0
 30
0.0
210
0.0
220
0.0
230
1.0
  2
SOLID
 70
     1
 71
     0
 91
        1
 92
        0
 93
       13
 72
     1
 10
969.9918481266891
 20
404.8559950579649
 11
969.6918481266891
 21
406.8559950579651
 72
     1
 10
969.6918481266891
 20
406.8559950579651
 11
963.9918481266891
 21
406.855995057965
 72
     1
 10
963.9918481266891
 20
406.855995057965
 11
963.591848126689
 21
404.8559950579651
 72
     1
 10
963.591848126689
 20
404.8559950579651
 11
965.3918481266892
 21
404.8559950579649
 72
     1
 10
965.3918481266892
 20
404.8559950579649
 11
964.6918481266891
 21
402.755995057965
 72
     1
 10
964.6918481266891
 20
402.755995057965
 11
962.6918481266891
 21
402.755995057965
 72
     1
 10
962.6918481266891
 20
402.755995057965
 11
962.6918481266889
 21
401.855995057965
 72
     1
 10
962.6918481266889
 20
401.855995057965
 11
977.6918481266889
 21
401.8559950579651
 72
     1
 10
977.6918481266889
 20
401.8559950579651
 11
972.8918481266892
 21
405.755995057965
 72
     1
 10
972.8918481266892
 20
405.755995057965
 11
972.8918481266892
 21
402.755995057965
 72
     1
 10
972.8918481266892
 20
402.755995057965
 11
968.7918481266893
 21
402.755995057965
 72
     1
 10
968.7918481266893
 20
402.755995057965
 11
967.9918481266891
 21
404.8559950579649
 72
     1
 10
967.9918481266891
 20
404.8559950579649
 11
969.9918481266891
 21
404.8559950579649
 97
        0
 75
     0
 76
     1
 98
        0
  0
LINE
  5
B5E
330
131B
100
AcDbEntity
  8
uszczelka EPDM
100
AcDbLine
 10
905.3918481266887
 20
404.8559950579649
 30
0.0
 11
905.6918481266887
 21
406.8559950579651
 31
0.0
  0
LINE
  5
B5F
330
131B
100
AcDbEntity
  8
uszczelka EPDM
100
AcDbLine
 10
905.6918481266887
 20
406.8559950579651
 30
0.0
 11
911.3918481266886
 21
406.855995057965
 31
0.0
  0
LINE
  5
B60
330
131B
100
AcDbEntity
  8
uszczelka EPDM
100
AcDbLine
 10
911.3918481266886
 20
406.855995057965
 30
0.0
 11
911.7918481266888
 21
404.8559950579651
 31
0.0
  0
LINE
  5
B61
330
131B
100
AcDbEntity
  8
uszczelka EPDM
100
AcDbLine
 10
911.7918481266888
 20
404.8559950579651
 30
0.0
 11
909.9918481266886
 21
404.8559950579649
 31
0.0
  0
LINE
  5
B62
330
131B
100
AcDbEntity
  8
uszczelka EPDM
100
AcDbLine
 10
909.9918481266886
 20
404.8559950579649
 30
0.0
 11
910.6918481266887
 21
402.755995057965
 31
0.0
  0
LINE
  5
B63
330
131B
100
AcDbEntity
  8
uszczelka EPDM
100
AcDbLine
 10
910.6918481266887
 20
402.755995057965
 30
0.0
 11
912.6918481266887
 21
402.7559950579651
 31
0.0
  0
LINE
  5
B64
330
131B
100
AcDbEntity
  8
uszczelka EPDM
100
AcDbLine
 10
912.6918481266887
 20
402.7559950579651
 30
0.0
 11
912.6918481266888
 21
401.855995057965
 31
0.0
  0
LINE
  5
B65
330
131B
100
AcDbEntity
  8
uszczelka EPDM
100
AcDbLine
 10
902.4918481266888
 20
405.7559950579648
 30
0.0
 11
902.4918481266888
 21
402.755995057965
 31
0.0
  0
LINE
  5
B66
330
131B
100
AcDbEntity
  8
uszczelka EPDM
100
AcDbLine
 10
902.4918481266888
 20
402.755995057965
 30
0.0
 11
906.5918481266887
 21
402.755995057965
 31
0.0
  0
LINE
  5
B67
330
131B
100
AcDbEntity
  8
uszczelka EPDM
100
AcDbLine
 10
906.5918481266887
 20
402.755995057965
 30
0.0
 11
907.3918481266888
 21
404.8559950579651
 31
0.0
  0
LINE
  5
B68
330
131B
100
AcDbEntity
  8
uszczelka EPDM
100
AcDbLine
 10
907.3918481266888
 20
404.8559950579651
 30
0.0
 11
905.3918481266887
 21
404.8559950579649
 31
0.0
  0
HATCH
  5
B69
330
131B
100
AcDbEntity
  8
uszczelka EPDM
100
AcDbHatch
 10
0.0
 20
0.0
 30
0.0
210
0.0
220
0.0
230
1.0
  2
SOLID
 70
     1
 71
     0
 91
        1
 92
        0
 93
       13
 72
     1
 10
905.3918481266887
 20
404.8559950579649
 11
905.6918481266887
 21
406.8559950579651
 72
     1
 10
905.6918481266887
 20
406.8559950579651
 11
911.3918481266886
 21
406.855995057965
 72
     1
 10
911.3918481266886
 20
406.855995057965
 11
911.7918481266888
 21
404.8559950579651
 72
     1
 10
911.7918481266888
 20
404.8559950579651
 11
909.9918481266886
 21
404.8559950579649
 72
     1
 10
909.9918481266886
 20
404.8559950579649
 11
910.6918481266887
 21
402.755995057965
 72
     1
 10
910.6918481266887
 20
402.755995057965
 11
912.6918481266887
 21
402.7559950579651
 72
     1
 10
912.6918481266887
 20
402.7559950579651
 11
912.6918481266888
 21
401.855995057965
 72
     1
 10
912.6918481266888
 20
401.855995057965
 11
897.6918481266888
 21
401.8559950579651
 72
     1
 10
897.6918481266888
 20
401.8559950579651
 11
902.4918481266888
 21
405.7559950579648
 72
     1
 10
902.4918481266888
 20
405.7559950579648
 11
902.4918481266888
 21
402.755995057965
 72
     1
 10
902.4918481266888
 20
402.755995057965
 11
906.5918481266887
 21
402.755995057965
 72
     1
 10
906.5918481266887
 20
402.755995057965
 11
907.3918481266888
 21
404.8559950579651
 72
     1
 10
907.3918481266888
 20
404.8559950579651
 11
905.3918481266887
 21
404.8559950579649
 97
        0
 75
     0
 76
     1
 98
        0
  0
LINE
  5
B6C
330
131B
100
AcDbEntity
  8
uszczelka EPDM
100
AcDbLine
 10
897.7847289195784
 20
401.9314607021878
 30
0.0
 11
902.4918481266888
 21
405.7559950579648
 31
0.0
  0
LINE
  5
B6D
330
131B
100
AcDbEntity
  8
profile aluminiowe
100
AcDbLine
 10
973.0051898804793
 20
375.1997046230862
 30
0.0
 11
973.0051898804793
 21
384.6997046230862
 31
0.0
  0
ARC
  5
B6E
330
131B
100
AcDbEntity
  8
profile aluminiowe
100
AcDbCircle
 10
972.5051898804793
 20
384.6997046230862
 30
0.0
 40
0.5
100
AcDbArc
 50
0.0
 51
89.99999999999999
  0
ARC
  5
B6F
330
131B
100
AcDbEntity
  8
profile aluminiowe
100
AcDbCircle
 10
971.0051898804793
 20
377.499704623086
 30
0.0
 40
0.5
100
AcDbArc
 50
270.0
 51
0.0
  0
LINE
  5
B70
330
131B
100
AcDbEntity
  8
profile aluminiowe
100
AcDbLine
 10
971.0051898804791
 20
376.9997046230861
 30
0.0
 11
963.0051898804791
 21
376.999704623086
 31
0.0
  0
ARC
  5
B71
330
131B
100
AcDbEntity
  8
profile aluminiowe
100
AcDbCircle
 10
963.0051898804791
 20
377.4997046230861
 30
0.0
 40
0.5
100
AcDbArc
 50
180.0
 51
270.0
  0
LINE
  5
B72
330
131B
100
AcDbEntity
  8
profile aluminiowe
100
AcDbLine
 10
962.5051898804791
 20
377.4997046230861
 30
0.0
 11
962.5051898804791
 21
383.1997046230861
 31
0.0
  0
ARC
  5
B73
330
131B
100
AcDbEntity
  8
profile aluminiowe
100
AcDbCircle
 10
963.0051898804791
 20
383.1997046230861
 30
0.0
 40
0.5
100
AcDbArc
 50
89.99999999999999
 51
180.0
  0
ARC
  5
B74
330
131B
100
AcDbEntity
  8
profile aluminiowe
100
AcDbCircle
 10
961.5161844751842
 20
384.7013715824384
 30
0.0
 40
0.5
100
AcDbArc
 50
89.96829157503149
 51
179.9100345611651
  0
LINE
  5
B75
330
131B
100
AcDbEntity
  8
profile aluminiowe
100
AcDbLine
 10
961.0161850915606
 20
384.702156678676
 30
0.0
 11
961.0048746088432
 21
377.4989195268487
 31
0.0
  0
ARC
  5
B76
330
131B
100
AcDbEntity
  8
profile aluminiowe
100
AcDbCircle
 10
960.5048752252196
 20
377.4997046230852
 30
0.0
 40
0.5
100
AcDbArc
 50
270.0
 51
359.9100345611652
  0
LINE
  5
B77
330
131B
100
AcDbEntity
  8
profile aluminiowe
100
AcDbLine
 10
963.0051898804791
 20
383.6997046230862
 30
0.0
 11
965.4051898804792
 21
383.6997046230861
 31
0.0
  0
LINE
  5
B78
330
131B
100
AcDbEntity
  8
profile aluminiowe
100
AcDbLine
 10
965.4051898804792
 20
383.6997046230861
 30
0.0
 11
964.978973206564
 21
384.8707253104632
 31
0.0
  0
LINE
  5
B79
330
131B
100
AcDbEntity
  8
profile aluminiowe
100
AcDbLine
 10
964.5094036043652
 20
385.1997151622329
 30
0.0
 11
961.5164611833782
 21
385.201371505871
 31
0.0
  0
ARC
  5
B7A
330
131B
100
AcDbEntity
  8
profile aluminiowe
100
AcDbCircle
 10
964.509126896171
 20
384.6997152388004
 30
0.0
 40
0.5
100
AcDbArc
 50
20.00000000000007
 51
89.96829157503149
  0
LINE
  5
B7B
330
131B
100
AcDbEntity
  8
profile aluminiowe
100
AcDbLine
 10
939.6052744374697
 20
377.9997046230865
 30
0.0
 11
938.0051898804793
 21
377.9997046230861
 31
0.0
  0
ARC
  5
B7C
330
131B
100
AcDbEntity
  8
profile aluminiowe
100
AcDbCircle
 10
939.6052744374697
 20
378.9997046230861
 30
0.0
 40
1.0
100
AcDbArc
 50
270.0
 51
0.024249449880399
  0
LINE
  5
B7D
330
131B
100
AcDbEntity
  8
profile aluminiowe
100
AcDbLine
 10
940.6002003557797
 20
390.9887840197802
 30
0.0
 11
940.6052743479067
 21
379.0001278558158
 31
0.0
  0
LINE
  5
B7E
330
131B
100
AcDbEntity
  8
profile aluminiowe
100
AcDbLine
 10
942.6051898804792
 20
392.4425722200252
 30
0.0
 11
940.6002003557797
 21
390.9887840197802
 31
0.0
  0
LINE
  5
B7F
330
131B
100
AcDbEntity
  8
profile aluminiowe
100
AcDbLine
 10
903.0051898804793
 20
375.1997046230857
 30
0.0
 11
903.0051898804792
 21
384.6997046230858
 31
0.0
  0
ARC
  5
B80
330
131B
100
AcDbEntity
  8
profile aluminiowe
100
AcDbCircle
 10
903.5051898804792
 20
384.6997046230857
 30
0.0
 40
0.5
100
AcDbArc
 50
90.0000000000006
 51
180.0
  0
ARC
  5
B81
330
131B
100
AcDbEntity
  8
profile aluminiowe
100
AcDbCircle
 10
905.0051898804793
 20
377.4997046230857
 30
0.0
 40
0.5
100
AcDbArc
 50
180.0
 51
270.0000000000007
  0
LINE
  5
B82
330
131B
100
AcDbEntity
  8
profile aluminiowe
100
AcDbLine
 10
905.0051898804792
 20
376.9997046230858
 30
0.0
 11
913.0051898804792
 21
376.9997046230858
 31
0.0
  0
ARC
  5
B83
330
131B
100
AcDbEntity
  8
profile aluminiowe
100
AcDbCircle
 10
913.0051898804793
 20
377.4997046230858
 30
0.0
 40
0.5
100
AcDbArc
 50
270.0000000000007
 51
0.0
  0
LINE
  5
B84
330
131B
100
AcDbEntity
  8
profile aluminiowe
100
AcDbLine
 10
913.5051898804793
 20
377.4997046230858
 30
0.0
 11
913.5051898804792
 21
383.1997046230859
 31
0.0
  0
ARC
  5
B85
330
131B
100
AcDbEntity
  8
profile aluminiowe
100
AcDbCircle
 10
913.0051898804792
 20
383.1997046230859
 30
0.0
 40
0.5
100
AcDbArc
 50
0.0
 51
90.0000000000006
  0
ARC
  5
B86
330
131B
100
AcDbEntity
  8
profile aluminiowe
100
AcDbCircle
 10
914.4941952857741
 20
384.7013715824381
 30
0.0
 40
0.5
100
AcDbArc
 50
0.0899654388348539
 51
90.03170842496903
  0
LINE
  5
B87
330
131B
100
AcDbEntity
  8
profile aluminiowe
100
AcDbLine
 10
914.9941946693979
 20
384.7021566786758
 30
0.0
 11
915.0055051521153
 21
377.4989195268482
 31
0.0
  0
ARC
  5
B88
330
131B
100
AcDbEntity
  8
profile aluminiowe
100
AcDbCircle
 10
915.5055045357387
 20
377.4997046230859
 30
0.0
 40
0.5
100
AcDbArc
 50
180.0899654388348
 51
270.0000000000007
  0
LINE
  5
B89
330
131B
100
AcDbEntity
  8
profile aluminiowe
100
AcDbLine
 10
913.0051898804792
 20
383.6997046230859
 30
0.0
 11
910.605189880479
 21
383.6997046230858
 31
0.0
  0
LINE
  5
B8A
330
131B
100
AcDbEntity
  8
profile aluminiowe
100
AcDbLine
 10
910.605189880479
 20
383.6997046230858
 30
0.0
 11
911.0314065543944
 21
384.8707253104629
 31
0.0
  0
LINE
  5
B8B
330
131B
100
AcDbEntity
  8
profile aluminiowe
100
AcDbLine
 10
911.5009761565933
 20
385.1997151622326
 30
0.0
 11
914.4939185775803
 21
385.2013715058707
 31
0.0
  0
ARC
  5
B8C
330
131B
100
AcDbEntity
  8
profile aluminiowe
100
AcDbCircle
 10
911.5012528647874
 20
384.6997152388001
 30
0.0
 40
0.5
100
AcDbArc
 50
90.03170842496903
 51
160.0000000000005
  0
LINE
  5
B8D
330
131B
100
AcDbEntity
  8
profile aluminiowe
100
AcDbLine
 10
936.4051053234888
 20
377.999704623086
 30
0.0
 11
938.0051898804793
 21
377.9997046230861
 31
0.0
  0
ARC
  5
B8E
330
131B
100
AcDbEntity
  8
profile aluminiowe
100
AcDbCircle
 10
936.4051053234887
 20
378.9997046230861
 30
0.0
 40
1.0
100
AcDbArc
 50
179.9757505501196
 51
270.0000000000007
  0
LINE
  5
B8F
330
131B
100
AcDbEntity
  8
profile aluminiowe
100
AcDbLine
 10
935.4101794051787
 20
390.9887840197802
 30
0.0
 11
935.4051054130517
 21
379.0001278558157
 31
0.0
  0
LINE
  5
B90
330
131B
100
AcDbEntity
  8
profile aluminiowe
100
AcDbLine
 10
933.4051898804792
 20
392.4425722200251
 30
0.0
 11
935.4101794051787
 21
390.9887840197802
 31
0.0
  0
LINE
  5
B91
330
131B
100
AcDbEntity
  8
profile aluminiowe
100
AcDbLine
 10
942.6051898804792
 20
377.9997046230866
 30
0.0
 11
942.6051898804792
 21
392.4425722200252
 31
0.0
  0
ARC
  5
B92
330
131B
100
AcDbEntity
  8
profile aluminiowe
100
AcDbCircle
 10
943.6051898804792
 20
377.9997046230854
 30
0.0
 40
1.0
100
AcDbArc
 50
180.0
 51
270.0
  0
LINE
  5
B93
330
131B
100
AcDbEntity
  8
profile aluminiowe
100
AcDbLine
 10
933.4051898804793
 20
377.9997046230863
 30
0.0
 11
933.4051898804792
 21
392.4425722200251
 31
0.0
  0
ARC
  5
B94
330
131B
100
AcDbEntity
  8
profile aluminiowe
100
AcDbCircle
 10
932.4051898804793
 20
377.9997046230858
 30
0.0
 40
1.0
100
AcDbArc
 50
270.0000000000007
 51
0.0
  0
LINE
  5
B95
330
131B
100
AcDbEntity
  8
profile aluminiowe
100
AcDbLine
 10
972.5051898804793
 20
385.1997046230861
 30
0.0
 11
969.5012490009835
 21
385.1997046230861
 31
0.0
  0
LINE
  5
B96
330
131B
100
AcDbEntity
  8
profile aluminiowe
100
AcDbLine
 10
968.6051898804792
 20
383.6997046230861
 30
0.0
 11
969.0314026905903
 21
384.870714694749
 31
0.0
  0
ARC
  5
B97
330
131B
100
AcDbEntity
  8
profile aluminiowe
100
AcDbCircle
 10
969.5012490009835
 20
384.6997046230861
 30
0.0
 40
0.5
100
AcDbArc
 50
89.99999999999999
 51
159.9999999999999
  0
LINE
  5
B98
330
131B
100
AcDbEntity
  8
profile aluminiowe
100
AcDbLine
 10
971.5051898804791
 20
383.1997046230862
 30
0.0
 11
971.5051898804791
 21
377.4997046230853
 31
0.0
  0
LINE
  5
B99
330
131B
100
AcDbEntity
  8
profile aluminiowe
100
AcDbLine
 10
968.6051898804792
 20
383.6997046230861
 30
0.0
 11
971.0051898804791
 21
383.6997046230862
 31
0.0
  0
ARC
  5
B9A
330
131B
100
AcDbEntity
  8
profile aluminiowe
100
AcDbCircle
 10
971.0051898804791
 20
383.1997046230862
 30
0.0
 40
0.5
100
AcDbArc
 50
0.0
 51
89.99999999999999
  0
LINE
  5
B9B
330
131B
100
AcDbEntity
  8
profile aluminiowe
100
AcDbLine
 10
907.4051898804793
 20
383.6997046230861
 30
0.0
 11
906.9789770703682
 21
384.8707146947486
 31
0.0
  0
LINE
  5
B9C
330
131B
100
AcDbEntity
  8
profile aluminiowe
100
AcDbLine
 10
903.5051898804792
 20
385.1997046230857
 30
0.0
 11
906.5091307599752
 21
385.1997046230858
 31
0.0
  0
ARC
  5
B9D
330
131B
100
AcDbEntity
  8
profile aluminiowe
100
AcDbCircle
 10
906.5091307599752
 20
384.6997046230858
 30
0.0
 40
0.5
100
AcDbArc
 50
19.99999999999951
 51
89.99999999999999
  0
LINE
  5
B9E
330
131B
100
AcDbEntity
  8
profile aluminiowe
100
AcDbLine
 10
907.4051898804793
 20
383.6997046230861
 30
0.0
 11
905.0051898804792
 21
383.6997046230861
 31
0.0
  0
LINE
  5
B9F
330
131B
100
AcDbEntity
  8
profile aluminiowe
100
AcDbLine
 10
904.5051898804793
 20
383.1997046230862
 30
0.0
 11
904.5051898804793
 21
377.4997046230857
 31
0.0
  0
ARC
  5
BA0
330
131B
100
AcDbEntity
  8
profile aluminiowe
100
AcDbCircle
 10
905.0051898804792
 20
383.1997046230861
 30
0.0
 40
0.5
100
AcDbArc
 50
89.99999999999999
 51
180.0
  0
LINE
  5
BA1
330
131B
100
AcDbEntity
  8
profile aluminiowe
100
AcDbLine
 10
924.2051898804793
 20
376.6997046230861
 30
0.0
 11
924.5051898804793
 21
376.9997046230861
 31
0.0
  0
LINE
  5
BA2
330
131B
100
AcDbEntity
  8
profile aluminiowe
100
AcDbLine
 10
923.9051898804793
 20
376.999704623086
 30
0.0
 11
924.2051898804793
 21
376.6997046230861
 31
0.0
  0
LINE
  5
BA3
330
131B
100
AcDbEntity
  8
profile aluminiowe
100
AcDbLine
 10
915.5055045357389
 20
376.9997046230859
 30
0.0
 11
923.9051898804793
 21
376.999704623086
 31
0.0
  0
LINE
  5
BA4
330
131B
100
AcDbEntity
  8
profile aluminiowe
100
AcDbLine
 10
924.5051898804791
 20
376.999704623086
 30
0.0
 11
932.4051898804793
 21
376.9997046230861
 31
0.0
  0
LINE
  5
BA5
330
131B
100
AcDbEntity
  8
profile aluminiowe
100
AcDbLine
 10
960.5048752252196
 20
376.9997046230862
 30
0.0
 11
952.1051898804792
 21
376.9997046230861
 31
0.0
  0
LINE
  5
BA6
330
131B
100
AcDbEntity
  8
profile aluminiowe
100
AcDbLine
 10
952.1051898804792
 20
376.9997046230861
 30
0.0
 11
951.8051898804792
 21
376.6997046230862
 31
0.0
  0
LINE
  5
BA7
330
131B
100
AcDbEntity
  8
profile aluminiowe
100
AcDbLine
 10
951.8051898804792
 20
376.6997046230862
 30
0.0
 11
951.5051898804792
 21
376.999704623086
 31
0.0
  0
LINE
  5
BA8
330
131B
100
AcDbEntity
  8
profile aluminiowe
100
AcDbLine
 10
951.5051898804792
 20
376.999704623086
 30
0.0
 11
943.6051898804792
 21
376.9997046230861
 31
0.0
  0
HATCH
  5
BA9
330
131B
100
AcDbEntity
  8
profile alu kresk
100
AcDbHatch
 10
0.0
 20
0.0
 30
0.0
210
0.0
220
0.0
230
1.0
  2
ANSI31
 70
     0
 71
     0
 91
        1
 92
        0
 93
       62
 72
     1
 10
938.0051898804792
 20
375.1997046230861
 11
973.0051898804793
 21
375.1997046230862
 72
     1
 10
973.0051898804793
 20
375.1997046230862
 11
973.0051898804793
 21
384.6997046230862
 72
     2
 10
972.5051898804793
 20
384.6997046230862
 40
0.5
 50
0.0
 51
90.0
 73
     1
 72
     1
 10
972.5051898804793
 20
385.1997046230862
 11
969.5012490009835
 21
385.1997046230861
 72
     2
 10
969.5012490009835
 20
384.6997046230861
 40
0.5
 50
89.99999999999999
 51
159.9999999999999
 73
     1
 72
     1
 10
969.0314026905905
 20
384.870714694749
 11
968.6051898804792
 21
383.6997046230861
 72
     1
 10
968.6051898804792
 20
383.6997046230861
 11
971.0051898804791
 21
383.6997046230862
 72
     2
 10
971.0051898804791
 20
383.1997046230862
 40
0.5
 50
270.0
 51
360.0
 73
     0
 72
     1
 10
971.5051898804791
 20
383.1997046230862
 11
971.5051898804791
 21
377.4997046230853
 72
     2
 10
971.0051898804793
 20
377.499704623086
 40
0.5
 50
0.0
 51
90.0
 73
     0
 72
     1
 10
971.0051898804793
 20
376.999704623086
 11
963.0051898804791
 21
376.999704623086
 72
     2
 10
963.0051898804791
 20
377.4997046230861
 40
0.5
 50
90.0
 51
180.0
 73
     0
 72
     1
 10
962.5051898804791
 20
377.4997046230861
 11
962.5051898804791
 21
383.1997046230861
 72
     2
 10
963.0051898804791
 20
383.1997046230861
 40
0.5
 50
180.0
 51
270.0
 73
     0
 72
     1
 10
963.0051898804791
 20
383.6997046230861
 11
965.4051898804792
 21
383.6997046230861
 72
     1
 10
965.4051898804792
 20
383.6997046230861
 11
964.978973206564
 21
384.8707253104632
 72
     2
 10
964.509126896171
 20
384.6997152388004
 40
0.5
 50
20.00000000000007
 51
89.96829157503149
 73
     1
 72
     1
 10
964.509403604365
 20
385.199715162233
 11
961.5164611833782
 21
385.201371505871
 72
     2
 10
961.5161844751842
 20
384.7013715824384
 40
0.5
 50
89.96829157503149
 51
179.9100345611651
 73
     1
 72
     1
 10
961.0161850915607
 20
384.7021566786761
 11
961.0048746088432
 21
377.4989195268487
 72
     2
 10
960.5048752252196
 20
377.4997046230852
 40
0.5
 50
0.0899654388348526
 51
90.0
 73
     0
 72
     1
 10
960.5048752252196
 20
376.9997046230852
 11
952.1051898804792
 21
376.9997046230861
 72
     1
 10
952.1051898804792
 20
376.9997046230861
 11
951.8051898804792
 21
376.6997046230862
 72
     1
 10
951.8051898804792
 20
376.6997046230862
 11
951.5051898804793
 21
376.999704623086
 72
     1
 10
951.5051898804793
 20
376.999704623086
 11
943.6051898804792
 21
376.9997046230861
 72
     2
 10
943.6051898804792
 20
377.9997046230854
 40
1.0
 50
90.0
 51
180.0
 73
     0
 72
     1
 10
942.6051898804792
 20
377.9997046230854
 11
942.6051898804792
 21
392.4425722200252
 72
     1
 10
942.6051898804792
 20
392.4425722200252
 11
940.6002003557797
 21
390.9887840197802
 72
     1
 10
940.6002003557797
 20
390.9887840197802
 11
940.6052743479067
 21
379.0001278558158
 72
     2
 10
939.6052744374697
 20
378.9997046230861
 40
1.0
 50
359.9757505501196
 51
450.0
 73
     0
 72
     1
 10
939.6052744374697
 20
377.9997046230861
 11
938.0051898804793
 21
377.9997046230861
 72
     1
 10
938.0051898804793
 20
377.9997046230861
 11
936.4051053234888
 21
377.999704623086
 72
     2
 10
936.4051053234887
 20
378.9997046230861
 40
1.0
 50
89.99999999999939
 51
180.0242494498804
 73
     0
 72
     1
 10
935.4051054130516
 20
379.0001278558157
 11
935.4101794051787
 21
390.9887840197802
 72
     1
 10
935.4101794051787
 20
390.9887840197802
 11
933.4051898804792
 21
392.4425722200251
 72
     1
 10
933.4051898804792
 20
392.4425722200251
 11
933.4051898804793
 21
377.9997046230863
 72
     2
 10
932.4051898804793
 20
377.9997046230858
 40
1.0
 50
0.0
 51
89.99999999999919
 73
     0
 72
     1
 10
932.4051898804793
 20
376.9997046230858
 11
924.5051898804792
 21
376.999704623086
 72
     1
 10
924.5051898804792
 20
376.999704623086
 11
924.2051898804793
 21
376.6997046230861
 72
     1
 10
924.2051898804793
 20
376.6997046230861
 11
923.9051898804793
 21
376.999704623086
 72
     1
 10
923.9051898804793
 20
376.999704623086
 11
915.5055045357389
 21
376.9997046230859
 72
     2
 10
915.5055045357387
 20
377.4997046230859
 40
0.5
 50
89.99999999999939
 51
179.9100345611651
 73
     0
 72
     1
 10
915.0055051521152
 20
377.4989195268482
 11
914.9941946693979
 21
384.7021566786758
 72
     2
 10
914.4941952857741
 20
384.7013715824381
 40
0.5
 50
0.0899654388348539
 51
90.03170842496903
 73
     1
 72
     1
 10
914.4939185775801
 20
385.2013715058707
 11
911.5009761565933
 21
385.1997151622326
 72
     2
 10
911.5012528647874
 20
384.6997152388001
 40
0.5
 50
90.03170842496903
 51
160.0000000000005
 73
     1
 72
     1
 10
911.0314065543944
 20
384.8707253104629
 11
910.605189880479
 21
383.6997046230858
 72
     1
 10
910.605189880479
 20
383.6997046230858
 11
913.0051898804792
 21
383.6997046230859
 72
     2
 10
913.0051898804792
 20
383.1997046230859
 40
0.5
 50
269.9999999999994
 51
360.0
 73
     0
 72
     1
 10
913.5051898804792
 20
383.1997046230859
 11
913.5051898804793
 21
377.4997046230858
 72
     2
 10
913.0051898804793
 20
377.4997046230858
 40
0.5
 50
0.0
 51
89.99999999999939
 73
     0
 72
     1
 10
913.0051898804793
 20
376.9997046230858
 11
905.0051898804792
 21
376.9997046230858
 72
     2
 10
905.0051898804793
 20
377.4997046230857
 40
0.5
 50
89.99999999999939
 51
180.0
 73
     0
 72
     1
 10
904.5051898804793
 20
377.4997046230857
 11
904.5051898804793
 21
383.1997046230862
 72
     2
 10
905.0051898804792
 20
383.1997046230861
 40
0.5
 50
180.0
 51
270.0
 73
     0
 72
     1
 10
905.0051898804792
 20
383.6997046230861
 11
907.4051898804793
 21
383.6997046230861
 72
     1
 10
907.4051898804793
 20
383.6997046230861
 11
906.9789770703682
 21
384.8707146947486
 72
     2
 10
906.5091307599752
 20
384.6997046230858
 40
0.5
 50
19.99999999999951
 51
89.99999999999999
 73
     1
 72
     1
 10
906.5091307599752
 20
385.1997046230858
 11
903.5051898804792
 21
385.1997046230857
 72
     2
 10
903.5051898804792
 20
384.6997046230857
 40
0.5
 50
90.0000000000006
 51
180.0
 73
     1
 72
     1
 10
903.0051898804792
 20
384.6997046230857
 11
903.0051898804793
 21
375.1997046230857
 72
     1
 10
903.0051898804793
 20
375.1997046230857
 11
938.0051898804792
 21
375.1997046230861
 97
        0
 75
     0
 76
     1
 52
180.0
 41
0.445421594448219
 77
     0
 78
     1
 53
225.0
 43
0.0
 44
0.0
 45
1.0
 46
-1.0
 79
     0
 98
        0
1001
ACAD
1010
0.0
1020
0.0
1030
0.0
  0
LINE
  5
BAA
330
131B
100
AcDbEntity
  8
profile aluminiowe
100
AcDbLine
 10
938.0051898804792
 20
375.1997046230861
 30
0.0
 11
973.0051898804793
 21
375.1997046230862
 31
0.0
  0
LINE
  5
BAB
330
131B
100
AcDbEntity
  8
profile aluminiowe
100
AcDbLine
 10
938.0051898804792
 20
375.1997046230861
 30
0.0
 11
903.0051898804793
 21
375.1997046230857
 31
0.0
  0
LINE
  5
BAC
330
131B
100
AcDbEntity
  8
swietlik poliweglan
100
AcDbLine
 10
1030.0
 20
385.2800975986439
 30
0.0
 11
949.9810719878118
 21
385.2800975986438
 31
0.0
  0
MTEXT
  5
BAE
330
131B
100
AcDbEntity
  8
wymiary
100
AcDbMText
 10
959.5
 20
333.7333333333337
 30
0.0
 40
6.0
 41
100.0
 46
0.0
 71
     7
 72
     1
  1
profil\~dolny\PE-2087
  7
textstyle13
 73
     1
 44
1.0
  0
HATCH
  5
BAF
330
131B
100
AcDbEntity
  8
profile alu kresk
100
AcDbHatch
 10
0.0
 20
0.0
 30
0.0
210
0.0
220
0.0
230
1.0
  2
ANSI31
 70
     0
 71
     0
 91
        1
 92
        0
 93
       28
 72
     2
 10
909.8402456489389
 20
383.3915102268682
 40
0.5000000000000001
 50
0.0
 51
90.0
 73
     0
 72
     1
 10
909.8402456489389
 20
382.8915102268682
 11
908.3402456489389
 21
382.8915102268682
 72
     2
 10
908.3402456489389
 20
383.3915102268682
 40
0.5
 50
90.0
 51
180.0
 73
     0
 72
     1
 10
907.8402456489389
 20
383.3915102268682
 11
907.8402456489388
 21
386.4418213290942
 72
     2
 10
908.3402456489389
 20
386.4418213290942
 40
0.5
 50
180.0
 51
255.0000000000004
 73
     0
 72
     1
 10
908.2108361263877
 20
386.9247842422387
 11
909.8696551714901
 21
387.3692634657634
 72
     2
 10
909.7402456489389
 20
387.8522263789079
 40
0.5
 50
285.0000000000011
 51
360.0
 73
     1
 72
     1
 10
910.2402456489389
 20
387.8522263789079
 11
910.2402456489389
 21
399.0915102268682
 72
     2
 10
909.7402456489389
 20
399.0915102268682
 40
0.5
 50
0.0
 51
90.0
 73
     1
 72
     1
 10
909.7402456489389
 20
399.5915102268682
 11
880.7402456489389
 21
399.5915102268683
 72
     2
 10
880.7402456489389
 20
399.0915102268682
 40
0.5
 50
89.99999999999999
 51
180.0
 73
     1
 72
     1
 10
880.2402456489389
 20
399.0915102268682
 11
880.2402456489389
 21
381.4915102268682
 72
     2
 10
880.7402456489389
 20
381.4915102268682
 40
0.5
 50
180.0
 51
270.0
 73
     1
 72
     1
 10
880.7402456489389
 20
380.9915102268682
 11
881.8091034565001
 21
380.9915102268682
 72
     2
 10
881.8091034565001
 20
380.4915102268682
 40
0.5
 50
270.0
 51
369.9999999999986
 73
     0
 72
     1
 10
882.3015073330063
 20
380.4046861380347
 11
882.1604457484394
 21
379.6046861380347
 72
     2
 10
881.6680418719334
 20
379.6915102268682
 40
0.5000000000000006
 50
10.00000000000177
 51
90.0
 73
     0
 72
     1
 10
881.6680418719334
 20
379.1915102268682
 11
878.9402456489389
 21
379.1915102268682
 72
     2
 10
878.9402456489389
 20
379.6915102268682
 40
0.5000000000000001
 50
90.0
 51
180.0
 73
     0
 72
     1
 10
878.4402456489389
 20
379.6915102268682
 11
878.4402456489389
 21
400.8915102268682
 72
     2
 10
878.9402456489389
 20
400.8915102268682
 40
0.5000000000000001
 50
180.0
 51
270.0
 73
     0
 72
     1
 10
878.9402456489389
 20
401.3915102268682
 11
911.5402456489388
 21
401.3915102268682
 72
     2
 10
911.5402456489388
 20
400.8915102268682
 40
0.5000000000000001
 50
270.0
 51
360.0
 73
     0
 72
     1
 10
912.0402456489388
 20
400.8915102268682
 11
912.0402456489389
 21
385.8915102268682
 72
     2
 10
911.5402456489389
 20
385.8915102268682
 40
0.5000000000000001
 50
0.0
 51
90.0
 73
     0
 72
     1
 10
911.5402456489389
 20
385.3915102268682
 11
910.8402456489388
 21
385.3915102268682
 72
     2
 10
910.8402456489388
 20
384.8915102268682
 40
0.5000000000000001
 50
89.99999999999999
 51
180.0
 73
     1
 72
     1
 10
910.3402456489388
 20
384.8915102268682
 11
910.3402456489389
 21
383.3915102268682
 97
        0
 75
     0
 76
     1
 52
180.0
 41
0.445421594448219
 77
     0
 78
     1
 53
225.0
 43
0.0
 44
0.0
 45
1.0
 46
-1.0
 79
     0
 98
        0
1001
ACAD
1010
0.0
1020
0.0
1030
0.0
  0
ARC
  5
BB0
330
131B
100
AcDbEntity
  8
profile aluminiowe
100
AcDbCircle
 10
909.8402456489389
 20
383.3915102268682
 30
0.0
 40
0.5000000000000001
100
AcDbArc
 50
270.0
 51
0.0
  0
LINE
  5
BB1
330
131B
100
AcDbEntity
  8
profile aluminiowe
100
AcDbLine
 10
910.3402456489388
 20
383.3915102268682
 30
0.0
 11
910.3402456489388
 21
384.8915102268682
 31
0.0
  0
ARC
  5
BB2
330
131B
100
AcDbEntity
  8
profile aluminiowe
100
AcDbCircle
 10
910.8402456489388
 20
384.8915102268682
 30
0.0
 40
0.5000000000000001
100
AcDbArc
 50
89.99999999999999
 51
180.0
  0
LINE
  5
BB3
330
131B
100
AcDbEntity
  8
profile aluminiowe
100
AcDbLine
 10
910.8402456489388
 20
385.3915102268682
 30
0.0
 11
911.5402456489388
 21
385.3915102268682
 31
0.0
  0
ARC
  5
BB4
330
131B
100
AcDbEntity
  8
profile aluminiowe
100
AcDbCircle
 10
911.5402456489389
 20
385.8915102268682
 30
0.0
 40
0.5000000000000001
100
AcDbArc
 50
270.0
 51
0.0
  0
LINE
  5
BB5
330
131B
100
AcDbEntity
  8
profile aluminiowe
100
AcDbLine
 10
912.0402456489389
 20
385.8915102268682
 30
0.0
 11
912.0402456489388
 21
400.8915102268682
 31
0.0
  0
ARC
  5
BB6
330
131B
100
AcDbEntity
  8
profile aluminiowe
100
AcDbCircle
 10
911.5402456489388
 20
400.8915102268682
 30
0.0
 40
0.5000000000000001
100
AcDbArc
 50
0.0
 51
89.99999999999999
  0
LINE
  5
BB7
330
131B
100
AcDbEntity
  8
profile aluminiowe
100
AcDbLine
 10
911.5402456489388
 20
401.3915102268682
 30
0.0
 11
878.9402456489389
 21
401.3915102268682
 31
0.0
  0
ARC
  5
BB8
330
131B
100
AcDbEntity
  8
profile aluminiowe
100
AcDbCircle
 10
878.9402456489389
 20
400.8915102268682
 30
0.0
 40
0.5000000000000001
100
AcDbArc
 50
89.99999999999999
 51
180.0
  0
LINE
  5
BB9
330
131B
100
AcDbEntity
  8
profile aluminiowe
100
AcDbLine
 10
878.4402456489389
 20
400.8915102268682
 30
0.0
 11
878.4402456489389
 21
379.6915102268682
 31
0.0
  0
ARC
  5
BBA
330
131B
100
AcDbEntity
  8
profile aluminiowe
100
AcDbCircle
 10
878.9402456489389
 20
379.6915102268682
 30
0.0
 40
0.5000000000000001
100
AcDbArc
 50
180.0
 51
270.0
  0
LINE
  5
BBB
330
131B
100
AcDbEntity
  8
profile aluminiowe
100
AcDbLine
 10
878.9402456489389
 20
379.1915102268682
 30
0.0
 11
881.6680418719334
 21
379.1915102268682
 31
0.0
  0
ARC
  5
BBC
330
131B
100
AcDbEntity
  8
profile aluminiowe
100
AcDbCircle
 10
881.6680418719334
 20
379.6915102268682
 30
0.0
 40
0.5000000000000006
100
AcDbArc
 50
270.0
 51
349.9999999999982
  0
ARC
  5
BBD
330
131B
100
AcDbEntity
  8
profile aluminiowe
100
AcDbCircle
 10
909.7402456489389
 20
399.0915102268682
 30
0.0
 40
0.5
100
AcDbArc
 50
0.0
 51
89.99999999999999
  0
LINE
  5
BBE
330
131B
100
AcDbEntity
  8
profile aluminiowe
100
AcDbLine
 10
880.7402456489389
 20
399.5915102268683
 30
0.0
 11
909.7402456489389
 21
399.5915102268682
 31
0.0
  0
ARC
  5
BBF
330
131B
100
AcDbEntity
  8
profile aluminiowe
100
AcDbCircle
 10
880.7402456489389
 20
399.0915102268682
 30
0.0
 40
0.5
100
AcDbArc
 50
89.99999999999999
 51
180.0
  0
LINE
  5
BC0
330
131B
100
AcDbEntity
  8
profile aluminiowe
100
AcDbLine
 10
880.2402456489389
 20
381.4915102268682
 30
0.0
 11
880.2402456489389
 21
399.0915102268682
 31
0.0
  0
ARC
  5
BC1
330
131B
100
AcDbEntity
  8
profile aluminiowe
100
AcDbCircle
 10
880.7402456489389
 20
381.4915102268682
 30
0.0
 40
0.5
100
AcDbArc
 50
180.0
 51
270.0
  0
LINE
  5
BC2
330
131B
100
AcDbEntity
  8
profile aluminiowe
100
AcDbLine
 10
881.8091034565001
 20
380.9915102268682
 30
0.0
 11
880.7402456489389
 21
380.9915102268682
 31
0.0
  0
LINE
  5
BC3
330
131B
100
AcDbEntity
  8
profile aluminiowe
100
AcDbLine
 10
882.1604457484394
 20
379.6046861380347
 30
0.0
 11
882.3015073330062
 21
380.4046861380348
 31
0.0
  0
ARC
  5
BC4
330
131B
100
AcDbEntity
  8
profile aluminiowe
100
AcDbCircle
 10
881.8091034565001
 20
380.4915102268682
 30
0.0
 40
0.5
100
AcDbArc
 50
350.0000000000013
 51
89.99999999999999
  0
LINE
  5
BC5
330
131B
100
AcDbEntity
  8
profile aluminiowe
100
AcDbLine
 10
910.2402456489389
 20
399.0915102268682
 30
0.0
 11
910.2402456489389
 21
387.8522263789079
 31
0.0
  0
ARC
  5
BC6
330
131B
100
AcDbEntity
  8
profile aluminiowe
100
AcDbCircle
 10
909.7402456489389
 20
387.8522263789079
 30
0.0
 40
0.5
100
AcDbArc
 50
285.0000000000011
 51
0.0
  0
LINE
  5
BC7
330
131B
100
AcDbEntity
  8
profile aluminiowe
100
AcDbLine
 10
908.3402456489389
 20
382.8915102268682
 30
0.0
 11
909.8402456489389
 21
382.8915102268682
 31
0.0
  0
ARC
  5
BC8
330
131B
100
AcDbEntity
  8
profile aluminiowe
100
AcDbCircle
 10
908.3402456489389
 20
383.3915102268682
 30
0.0
 40
0.5
100
AcDbArc
 50
180.0
 51
270.0
  0
LINE
  5
BC9
330
131B
100
AcDbEntity
  8
profile aluminiowe
100
AcDbLine
 10
909.8696551714901
 20
387.3692634657634
 30
0.0
 11
908.2108361263876
 21
386.9247842422388
 31
0.0
  0
LINE
  5
BCA
330
131B
100
AcDbEntity
  8
profile aluminiowe
100
AcDbLine
 10
907.8402456489388
 20
386.4418213290942
 30
0.0
 11
907.8402456489389
 21
383.3915102268682
 31
0.0
  0
ARC
  5
BCB
330
131B
100
AcDbEntity
  8
profile aluminiowe
100
AcDbCircle
 10
908.3402456489389
 20
386.4418213290942
 30
0.0
 40
0.5
100
AcDbArc
 50
104.9999999999995
 51
180.0
  0
LINE
  5
BD5
330
131B
100
AcDbEntity
  8
swietlik poliweglan
100
AcDbLine
 10
949.9810719878118
 20
385.2800975986438
 30
0.0
 11
949.9810719878118
 21
401.2800975986438
 31
0.0
  0
LINE
  5
BD6
330
131B
100
AcDbEntity
  8
swietlik poliweglan
100
AcDbLine
 10
970.9810719878119
 20
401.2800975986439
 30
0.0
 11
970.9810719878119
 21
385.2800975986439
 31
0.0
  0
LINE
  5
BD7
330
131B
100
AcDbEntity
  8
swietlik poliweglan
100
AcDbLine
 10
960.9810719878119
 20
401.2800975986439
 30
0.0
 11
960.9810719878119
 21
385.2800975986439
 31
0.0
  0
LINE
  5
BD8
330
131B
100
AcDbEntity
  8
swietlik poliweglan
100
AcDbLine
 10
980.9811639878117
 20
401.2800975986439
 30
0.0
 11
980.9811639878117
 21
385.2800975986438
 31
0.0
  0
LINE
  5
BD9
330
131B
100
AcDbEntity
  8
swietlik poliweglan
100
AcDbLine
 10
990.9811639878119
 20
401.2800975986441
 30
0.0
 11
990.9811639878117
 21
385.2800975986439
 31
0.0
  0
LINE
  5
BDA
330
131B
100
AcDbEntity
  8
swietlik poliweglan
100
AcDbLine
 10
1000.981163987812
 20
401.280097598644
 30
0.0
 11
1000.981163987812
 21
385.2800975986439
 31
0.0
  0
LINE
  5
BDB
330
131B
100
AcDbEntity
  8
swietlik poliweglan
100
AcDbLine
 10
1010.981163987812
 20
401.2800975986433
 30
0.0
 11
1010.981163987812
 21
385.2800975986439
 31
0.0
  0
LINE
  5
BDC
330
131B
100
AcDbEntity
  8
swietlik poliweglan
100
AcDbLine
 10
1020.981163987812
 20
401.2800975986441
 30
0.0
 11
1020.981163987812
 21
385.2800975986439
 31
0.0
  0
LINE
  5
BDD
330
131B
100
AcDbEntity
  8
swietlik poliweglan
100
AcDbLine
 10
950.0052818804794
 20
391.1997046230857
 30
0.0
 11
1030.0
 21
391.1997046230858
 31
0.0
  0
LINE
  5
BDE
330
131B
100
AcDbEntity
  8
swietlik poliweglan
100
AcDbLine
 10
950.0052818804793
 20
388.1997046230857
 30
0.0
 11
1030.0
 21
388.1997046230856
 31
0.0
  0
LINE
  5
BDF
330
131B
100
AcDbEntity
  8
swietlik poliweglan
100
AcDbLine
 10
950.0052818804793
 20
395.1997046230857
 30
0.0
 11
1030.0
 21
395.1997046230856
 31
0.0
  0
LEADER
  5
BE5
330
131B
100
AcDbEntity
  8
wymiary
100
AcDbLeader
  3
QCADDimStyle
 76
     3
 10
902.0052818804793
 20
326.65974991842
 30
0.0
 10
930.0
 20
290.0
 30
0.0
 10
988.9999999999999
 20
290.0
 30
0.0
  0
MTEXT
  5
BE6
330
131B
100
AcDbEntity
  8
wymiary
100
AcDbMText
 10
933.9999999999998
 20
292.9999999999996
 30
0.0
 40
6.0
 41
100.0
 46
0.0
 71
     7
 72
     1
  1
plyta poliweglanowa\Psciana czolowa
  7
textstyle14
 73
     1
 44
1.0
  0
MTEXT
  5
BE7
330
131B
100
AcDbEntity
  8
wymiary
100
AcDbMText
 10
800.0
 20
530.0
 30
0.0
 40
8.0
 41
100.0
 46
0.0
 71
     7
 72
     1
  1
Mocowanie sciany czolowej z pokryciem swietlika
  7
textstyle15
 73
     1
 44
1.0
  0
LINE
  5
BEC
330
131B
100
AcDbEntity
  8
swietlik poliweglan
100
AcDbLine
 10
949.9811639878118
 20
401.2800975986438
 30
0.0
 11
1030.0
 21
401.280097598644
 31
0.0
  0
MTEXT
  5
BED
330
131B
100
AcDbEntity
  8
wymiary
100
AcDbMText
 10
829.0
 20
451.0
 30
0.0
 40
6.0
 41
100.0
 46
0.0
 71
     7
 72
     1
  1
uszczelka\Ptypu\~B
  7
textstyle16
 73
     1
 44
1.0
  0
MTEXT
  5
BEE
330
131B
100
AcDbEntity
  8
wymiary
100
AcDbMText
 10
815.9999999999999
 20
423.0000000000001
 30
0.0
 40
6.0
 41
100.0
 46
0.0
 71
     7
 72
     1
  1
profil\Pdystansowy\PE-2136
  7
textstyle17
 73
     1
 44
1.0
  0
LEADER
  5
BEF
330
131B
100
AcDbEntity
  8
wymiary
100
AcDbLeader
  3
QCADDimStyle
 76
     3
 10
900.1382885231335
 20
403.8437278800763
 30
0.0
 10
870.0
 20
450.0
 30
0.0
 10
826.0
 20
450.0
 30
0.0
  0
LEADER
  5
C00
330
131B
100
AcDbEntity
  8
wymiary
100
AcDbLeader
  3
QCADDimStyle
 76
     3
 10
878.9118077735624
 20
401.390700859036
 30
0.0
 10
860.0
 20
420.0
 30
0.0
 10
816.0
 20
420.0
 30
0.0
  0
LEADER
  5
C01
330
131B
100
AcDbEntity
  8
wymiary
100
AcDbLeader
  3
QCADDimStyle
 76
     3
 10
924.5000919999998
 20
375.1997046230859
 30
0.0
 10
960.0
 20
330.0
 30
0.0
 10
1006.0
 20
330.0000000000002
 30
0.0
  0
LINE
  5
C05
330
131B
100
AcDbEntity
  8
swietlik poliweglan
100
AcDbLine
 10
902.0052818804793
 20
398.1997046230857
 30
0.0
 11
886.0052818804793
 21
398.1997046230857
 31
0.0
  0
LINE
  5
C06
330
131B
100
AcDbEntity
  8
swietlik poliweglan
100
AcDbLine
 10
889.0052818804793
 20
398.1996126230857
 30
0.0
 11
889.0052818804788
 21
280.0
 31
0.0
  0
LINE
  5
C07
330
131B
100
AcDbEntity
  8
swietlik poliweglan
100
AcDbLine
 10
892.085674856037
 20
398.1754947304182
 30
0.0
 11
892.0856748560382
 21
280.0
 31
0.0
  0
LINE
  5
C08
330
131B
100
AcDbEntity
  8
swietlik poliweglan
100
AcDbLine
 10
896.0856748560375
 20
398.1754947304181
 30
0.0
 11
896.085674856037
 21
280.0
 31
0.0
  0
LINE
  5
C09
330
131B
100
AcDbEntity
  8
swietlik poliweglan
100
AcDbLine
 10
899.0856748560373
 20
398.1754947304182
 30
0.0
 11
899.0856748560379
 21
280.0
 31
0.0
  0
LINE
  5
C0A
330
131B
100
AcDbEntity
  8
swietlik poliweglan
100
AcDbLine
 10
902.0052818804793
 20
280.0
 30
0.0
 11
902.0052818804793
 21
398.1997046230857
 31
0.0
  0
LINE
  5
C10
330
131B
100
AcDbEntity
  8
swietlik poliweglan
100
AcDbLine
 10
886.0052818804793
 20
398.1996126230857
 30
0.0
 11
886.0052818804788
 21
280.0
 31
0.0
  0
HATCH
  5
C11
330
131B
100
AcDbEntity
  8
uszczelka EPDM
100
AcDbHatch
 10
0.0
 20
0.0
 30
0.0
210
0.0
220
0.0
230
1.0
  2
SOLID
 70
     1
 71
     0
 91
        1
 92
        0
 93
        7
 72
     1
 10
881.3052818804795
 20
381.2997046230857
 11
882.8052818804795
 21
381.2997046230857
 72
     1
 10
882.8052818804795
 20
381.2997046230857
 11
882.7052818804794
 21
378.8997046230858
 72
     1
 10
882.7052818804794
 20
378.8997046230858
 11
880.6052818804794
 21
378.8997046230858
 72
     1
 10
880.6052818804794
 20
378.8997046230858
 11
884.8052818804794
 21
376.1997046230857
 72
     1
 10
884.8052818804794
 20
376.1997046230857
 11
884.8052818804794
 21
385.3997046230857
 72
     1
 10
884.8052818804794
 20
385.3997046230857
 11
882.4052818804794
 21
382.3997046230857
 72
     1
 10
882.4052818804794
 20
382.3997046230857
 11
881.3052818804795
 21
381.2997046230857
 97
        0
 75
     0
 76
     1
 98
        0
  0
CIRCLE
  5
C17
330
131B
100
AcDbEntity
  8
osie
100
AcDbCircle
 10
926.1265557604617
 20
432.1839932698482
 30
0.0
 40
183.8864141885239
  0
CIRCLE
  5
C18
330
131B
100
AcDbEntity
  8
osie
100
AcDbCircle
 10
1382.593509466133
 20
440.0
 30
0.0
 40
182.8671367391054
  0
CIRCLE
  5
C2E
330
131B
100
AcDbEntity
  8
osie
100
AcDbCircle
 10
1022.146830245371
 20
97.38404504344913
 30
0.0
 40
19.31993249189265
  0
CIRCLE
  5
C2F
330
131B
100
AcDbEntity
  8
osie
100
AcDbCircle
 10
1235.680067508107
 20
182.0
 30
0.0
 40
19.31993249189265
  0
CIRCLE
  5
C30
330
131B
100
AcDbEntity
  8
osie
100
AcDbCircle
 10
1299.208075377814
 20
87.63167311717412
 30
0.0
 40
19.31993249189265
  0
CIRCLE
  5
C31
330
131B
100
AcDbEntity
  8
osie
100
AcDbCircle
 10
1020.0
 20
0.0
 30
0.0
 40
19.31993249189265
  0
LINE
  5
C32
330
131B
100
AcDbEntity
  8
osie
100
AcDbLine
 10
1011.102428162321
 20
-17.14914012085252
 30
0.0
 11
999.3348736115271
 21
-61.46038296725794
 31
0.0
  0
LINE
  5
C33
330
131B
100
AcDbEntity
  8
osie
100
AcDbLine
 10
1303.40771172331
 20
68.77370806107966
 30
0.0
 11
1349.163516407072
 21
-66.08867915062108
 31
0.0
  0
LINE
  5
C34
330
131B
100
AcDbEntity
  8
osie
100
AcDbLine
 10
1243.233870530671
 20
199.7820092055875
 30
0.0
 11
1283.11488872271
 21
286.5581748213841
 31
0.0
  0
LINE
  5
C35
330
131B
100
AcDbEntity
  8
osie
100
AcDbLine
 10
1013.767857461266
 20
113.8788950592558
 30
0.0
 11
970.4361558347429
 21
253.7158654027957
 31
0.0
  0
MTEXT
  5
C37
330
131B
100
AcDbEntity
  8
ramka
100
AcDbMText
 10
960.0
 20
-559.9999999999999
 30
0.0
 40
5.0
 41
0.0
 46
0.0
 71
     7
 72
     1
  1
swietlik_dachowy_lukowy_szczegoly_konstrukcyjne.dwg
  7
textstyle18
 73
     1
 44
1.0
  0
MTEXT
  5
D19
330
131B
100
AcDbEntity
  8
wymiary
100
AcDbMText
 10
814.5484114802892
 20
352.0329148493137
 30
0.0
 40
5.0
 41
50.0
 46
0.0
 71
     7
 72
     1
  1
uszczelka\~A
  7
textstyle19
 73
     1
 44
1.0
  0
LEADER
  5
D1A
330
131B
100
AcDbEntity
  8
wymiary
100
AcDbLeader
  3
QCADDimStyle
 76
     3
 10
885.0
 20
378.0
 30
0.0
 10
860.0
 20
350.0
 30
0.0
 10
810.0
 20
350.0
 30
0.0
  0
MTEXT
  5
EF6
330
131B
100
AcDbEntity
  8
wymiary
100
AcDbMText
 10
1432.005120214981
 20
452.0978699518716
 30
0.0
 40
6.0
 41
100.0
 46
0.0
 71
     7
 72
     1
  1
profil\~górny\PE-2088
  7
textstyle20
 73
     1
 44
1.0
  0
LEADER
  5
EF7
330
131B
100
AcDbEntity
  8
wymiary
100
AcDbLeader
  3
QCADDimStyle
 76
     3
 10
1413.179033598629
 20
398.2891395299387
 30
0.0
 10
1439.005120214981
 20
431.0978699518716
 30
0.0
 10
1489.005120214981
 20
431.0978699518716
 30
0.0
  0
LEADER
  5
EF8
330
131B
100
AcDbEntity
  8
wymiary
100
AcDbLeader
  3
QCADDimStyle
 76
     3
 10
1377.980911626174
 20
403.7992762584801
 30
0.0
 10
1419.005120214981
 20
471.0978699518716
 30
0.0
 10
1469.005120214981
 20
471.0978699518716
 30
0.0
  0
MTEXT
  5
EF9
330
131B
100
AcDbEntity
  8
wymiary
100
AcDbMText
 10
1421.005120214981
 20
472.0978699518716
 30
0.0
 40
6.0
 41
100.0
 46
0.0
 71
     7
 72
     1
  1
sruba\Pspinajaca\Pz\~podkladka
  7
textstyle21
 73
     1
 44
1.0
  0
LEADER
  5
EFA
330
131B
100
AcDbEntity
  8
wymiary
100
AcDbLeader
  3
QCADDimStyle
 76
     3
 10
1292.873157804479
 20
395.8910047926628
 30
0.0
 10
1335.005120214981
 20
446.2578699518716
 30
0.0
 10
1392.005120214981
 20
446.2578699518716
 30
0.0
  0
MTEXT
  5
EFC
330
131B
100
AcDbEntity
  8
wymiary
100
AcDbMText
 10
1442.005120214981
 20
431.0978699518716
 30
0.0
 40
6.0
 41
100.0
 46
0.0
 71
     7
 72
     1
  1
uszczelka\Ptypu\~B
  7
textstyle22
 73
     1
 44
1.0
  0
LEADER
  5
EFD
330
131B
100
AcDbEntity
  8
wymiary
100
AcDbLeader
  3
QCADDimStyle
 76
     3
 10
1398.467415751603
 20
403.4688892931096
 30
0.0
 10
1429.005120214981
 20
451.0978699518716
 30
0.0
 10
1473.005120214981
 20
451.0978699518716
 30
0.0
  0
LEADER
  5
EFE
330
131B
100
AcDbEntity
  8
wymiary
100
AcDbLeader
  3
QCADDimStyle
 76
     3
 10
1375.534631182675
 20
370.716463645263
 30
0.0
 10
1395.005120214981
 20
337.2578699518716
 30
0.0
 10
1448.005120214981
 20
337.2578699518716
 30
0.0
  0
MTEXT
  5
EFF
330
131B
100
AcDbEntity
  8
wymiary
100
AcDbMText
 10
1397.005120214981
 20
340.2578699518714
 30
0.0
 40
6.0
 41
100.0
 46
0.0
 71
     7
 72
     1
  1
profil\~dolny\PE-2087
  7
textstyle23
 73
     1
 44
1.0
  0
ARC
  5
F08
330
131B
100
AcDbEntity
  8
profile aluminiowe
100
AcDbCircle
 10
1370.99383628162
 20
386.8296592845572
 30
0.0
 40
0.9359698647010015
100
AcDbArc
 50
359.1921967615554
 51
47.20498426574596
  0
LINE
  5
F33
330
131B
100
AcDbEntity
  8
sruby
100
AcDbLine
 10
1372.980911626173
 20
380.8187302880609
 30
0.0
 11
1372.980911626173
 21
378.8187302880599
 31
0.0
  0
LINE
  5
F34
330
131B
100
AcDbEntity
  8
sruby
100
AcDbLine
 10
1377.980911626173
 20
390.8187302880604
 30
0.0
 11
1371.980911626173
 21
389.81873028806
 31
0.0
  0
LINE
  5
F35
330
131B
100
AcDbEntity
  8
sruby
100
AcDbLine
 10
1371.980911626173
 20
389.81873028806
 30
0.0
 11
1372.980911626173
 21
389.6520636213937
 31
0.0
  0
LINE
  5
F36
330
131B
100
AcDbEntity
  8
sruby
100
AcDbLine
 10
1377.980911626173
 20
388.8187302880599
 30
0.0
 11
1376.980911626173
 21
388.6520636213932
 31
0.0
  0
LINE
  5
F37
330
131B
100
AcDbEntity
  8
sruby
100
AcDbLine
 10
1371.980911626173
 20
387.81873028806
 30
0.0
 11
1372.980911626173
 21
387.6520636213937
 31
0.0
  0
LINE
  5
F38
330
131B
100
AcDbEntity
  8
sruby
100
AcDbLine
 10
1372.980911626173
 20
387.9853969547268
 30
0.0
 11
1371.980911626173
 21
387.81873028806
 31
0.0
  0
LINE
  5
F39
330
131B
100
AcDbEntity
  8
sruby
100
AcDbLine
 10
1376.980911626173
 20
388.9853969547263
 30
0.0
 11
1377.980911626173
 21
388.8187302880599
 31
0.0
  0
LINE
  5
F3A
330
131B
100
AcDbEntity
  8
sruby
100
AcDbLine
 10
1377.980911626173
 20
388.8187302880599
 30
0.0
 11
1371.980911626173
 21
387.81873028806
 31
0.0
  0
LINE
  5
F3B
330
131B
100
AcDbEntity
  8
sruby
100
AcDbLine
 10
1372.980911626173
 20
387.8187302880604
 30
0.0
 11
1372.980911626173
 21
386.8187302880605
 31
0.0
  0
LINE
  5
F3C
330
131B
100
AcDbEntity
  8
sruby
100
AcDbLine
 10
1377.980911626173
 20
386.7183997469398
 30
0.0
 11
1371.980911626173
 21
385.7183997469401
 31
0.0
  0
LINE
  5
F3D
330
131B
100
AcDbEntity
  8
sruby
100
AcDbLine
 10
1371.980911626173
 20
385.7183997469401
 30
0.0
 11
1372.980911626173
 21
385.5517330802736
 31
0.0
  0
LINE
  5
F3E
330
131B
100
AcDbEntity
  8
sruby
100
AcDbLine
 10
1377.980911626173
 20
384.7183997469397
 30
0.0
 11
1371.980911626173
 21
383.71839974694
 31
0.0
  0
LINE
  5
F3F
330
131B
100
AcDbEntity
  8
sruby
100
AcDbLine
 10
1371.980911626173
 20
383.71839974694
 30
0.0
 11
1372.980911626173
 21
383.5517330802733
 31
0.0
  0
LINE
  5
F40
330
131B
100
AcDbEntity
  8
sruby
100
AcDbLine
 10
1377.980911626173
 20
382.7183997469396
 30
0.0
 11
1371.980911626173
 21
381.7183997469404
 31
0.0
  0
LINE
  5
F41
330
131B
100
AcDbEntity
  8
sruby
100
AcDbLine
 10
1371.980911626173
 20
381.7183997469404
 30
0.0
 11
1372.980911626173
 21
381.5517330802734
 31
0.0
  0
LINE
  5
F42
330
131B
100
AcDbEntity
  8
sruby
100
AcDbLine
 10
1377.980911626173
 20
380.7183997469415
 30
0.0
 11
1376.980911626173
 21
380.5517330802741
 31
0.0
  0
LINE
  5
F43
330
131B
100
AcDbEntity
  8
sruby
100
AcDbLine
 10
1371.980911626173
 20
379.7183997469405
 30
0.0
 11
1372.980911626173
 21
379.5517330802734
 31
0.0
  0
LINE
  5
F44
330
131B
100
AcDbEntity
  8
sruby
100
AcDbLine
 10
1372.980911626173
 20
379.8850664136066
 30
0.0
 11
1371.980911626173
 21
379.7183997469405
 31
0.0
  0
LINE
  5
F45
330
131B
100
AcDbEntity
  8
sruby
100
AcDbLine
 10
1376.980911626173
 20
386.8850664136072
 30
0.0
 11
1377.980911626173
 21
386.7183997469398
 31
0.0
  0
LINE
  5
F46
330
131B
100
AcDbEntity
  8
sruby
100
AcDbLine
 10
1376.980911626173
 20
384.8850664136058
 30
0.0
 11
1377.980911626173
 21
384.7183997469397
 31
0.0
  0
LINE
  5
F47
330
131B
100
AcDbEntity
  8
sruby
100
AcDbLine
 10
1376.980911626173
 20
382.8850664136066
 30
0.0
 11
1377.980911626173
 21
382.7183997469396
 31
0.0
  0
LINE
  5
F48
330
131B
100
AcDbEntity
  8
sruby
100
AcDbLine
 10
1376.980911626173
 20
380.8850664136066
 30
0.0
 11
1377.980911626173
 21
380.7183997469415
 31
0.0
  0
LINE
  5
F49
330
131B
100
AcDbEntity
  8
sruby
100
AcDbLine
 10
1377.980911626173
 20
380.7183997469415
 30
0.0
 11
1371.980911626173
 21
379.7183997469405
 31
0.0
  0
LINE
  5
F4A
330
131B
100
AcDbEntity
  8
sruby
100
AcDbLine
 10
1372.980911626173
 20
379.7183997469402
 30
0.0
 11
1372.980911626173
 21
378.7183997469398
 31
0.0
  0
LINE
  5
F5E
330
131B
100
AcDbEntity
  8
uszczelka EPDM
100
AcDbLine
 10
1407.267416669124
 20
399.66888929311
 30
0.0
 11
1406.967416669124
 21
401.6688892931105
 31
0.0
  0
LINE
  5
F5F
330
131B
100
AcDbEntity
  8
uszczelka EPDM
100
AcDbLine
 10
1406.967416669124
 20
401.6688892931105
 30
0.0
 11
1401.267416669124
 21
401.6688892931103
 31
0.0
  0
LINE
  5
F60
330
131B
100
AcDbEntity
  8
uszczelka EPDM
100
AcDbLine
 10
1401.267416669124
 20
401.6688892931103
 30
0.0
 11
1400.867416669124
 21
399.6688892931098
 31
0.0
  0
LINE
  5
F61
330
131B
100
AcDbEntity
  8
uszczelka EPDM
100
AcDbLine
 10
1400.867416669124
 20
399.6688892931098
 30
0.0
 11
1402.667416669124
 21
399.6688892931105
 31
0.0
  0
LINE
  5
F62
330
131B
100
AcDbEntity
  8
uszczelka EPDM
100
AcDbLine
 10
1402.667416669124
 20
399.6688892931105
 30
0.0
 11
1401.967416669124
 21
397.5688892931107
 31
0.0
  0
LINE
  5
F63
330
131B
100
AcDbEntity
  8
uszczelka EPDM
100
AcDbLine
 10
1401.967416669124
 20
397.5688892931107
 30
0.0
 11
1399.967416669124
 21
397.5688892931107
 31
0.0
  0
LINE
  5
F64
330
131B
100
AcDbEntity
  8
uszczelka EPDM
100
AcDbLine
 10
1399.967416669124
 20
397.5688892931107
 30
0.0
 11
1399.967416669124
 21
396.6688892931096
 31
0.0
  0
LINE
  5
F65
330
131B
100
AcDbEntity
  8
uszczelka EPDM
100
AcDbLine
 10
1410.167416669124
 20
400.5688892931102
 30
0.0
 11
1410.167416669124
 21
397.5688892931107
 31
0.0
  0
LINE
  5
F66
330
131B
100
AcDbEntity
  8
uszczelka EPDM
100
AcDbLine
 10
1410.167416669124
 20
397.5688892931107
 30
0.0
 11
1406.067416669125
 21
397.5688892931099
 31
0.0
  0
LINE
  5
F67
330
131B
100
AcDbEntity
  8
uszczelka EPDM
100
AcDbLine
 10
1406.067416669125
 20
397.5688892931099
 30
0.0
 11
1405.267416669124
 21
399.6688892931097
 31
0.0
  0
LINE
  5
F68
330
131B
100
AcDbEntity
  8
uszczelka EPDM
100
AcDbLine
 10
1405.267416669124
 20
399.6688892931097
 30
0.0
 11
1407.267416669124
 21
399.66888929311
 31
0.0
  0
LINE
  5
F69
330
131B
100
AcDbEntity
  8
uszczelka EPDM
100
AcDbLine
 10
1410.167416669124
 20
400.5688892931102
 30
0.0
 11
1409.884847861783
 21
403.2441186509162
 31
0.0
  0
LINE
  5
F6A
330
131B
100
AcDbEntity
  8
profile aluminiowe
100
AcDbLine
 10
1350.367416669124
 20
399.4688892931097
 30
0.0
 11
1350.367416669124
 21
401.8688892931103
 31
0.0
  0
LINE
  5
F6B
330
131B
100
AcDbEntity
  8
profile aluminiowe
100
AcDbLine
 10
1350.367416669124
 20
401.8688892931103
 30
0.0
 11
1341.567416669124
 21
401.8688892931106
 31
0.0
  0
LINE
  5
F6C
330
131B
100
AcDbEntity
  8
profile aluminiowe
100
AcDbLine
 10
1341.567416669124
 20
401.8688892931106
 30
0.0
 11
1341.567416669125
 21
399.4688892931107
 31
0.0
  0
LINE
  5
F6D
330
131B
100
AcDbEntity
  8
profile aluminiowe
100
AcDbLine
 10
1341.567416669125
 20
399.4688892931107
 30
0.0
 11
1344.367416669124
 21
399.4688892931093
 31
0.0
  0
LINE
  5
F6E
330
131B
100
AcDbEntity
  8
profile aluminiowe
100
AcDbLine
 10
1347.567416669124
 20
399.4688892931106
 30
0.0
 11
1350.367416669124
 21
399.4688892931097
 31
0.0
  0
LINE
  5
F6F
330
131B
100
AcDbEntity
  8
profile aluminiowe
100
AcDbLine
 10
1374.667416669124
 20
399.4688892931102
 30
0.0
 11
1374.967416669124
 21
399.1688892931103
 31
0.0
  0
LINE
  5
F70
330
131B
100
AcDbEntity
  8
profile aluminiowe
100
AcDbLine
 10
1344.367416669124
 20
399.4688892931093
 30
0.0
 11
1343.86422005777
 21
398.0863679658702
 31
0.0
  0
ARC
  5
F71
330
131B
100
AcDbEntity
  8
profile aluminiowe
100
AcDbCircle
 10
1343.394373747378
 20
398.2573780375331
 30
0.0
 40
0.5
100
AcDbArc
 50
270.0
 51
339.9999999999999
  0
LINE
  5
F72
330
131B
100
AcDbEntity
  8
profile aluminiowe
100
AcDbLine
 10
1347.567416669124
 20
399.4688892931106
 30
0.0
 11
1348.070558492181
 21
398.0865184954771
 31
0.0
  0
ARC
  5
F73
330
131B
100
AcDbEntity
  8
profile aluminiowe
100
AcDbCircle
 10
1348.540404802574
 20
398.2575285671393
 30
0.0
 40
0.5
100
AcDbArc
 50
199.9999999999999
 51
270.0246310199842
  0
LINE
  5
F74
330
131B
100
AcDbEntity
  8
profile aluminiowe
100
AcDbLine
 10
1352.467416669124
 20
399.4688892931109
 30
0.0
 11
1374.667416669124
 21
399.4688892931102
 31
0.0
  0
ARC
  5
F75
330
131B
100
AcDbEntity
  8
profile aluminiowe
100
AcDbCircle
 10
1352.467416669124
 20
399.9688892931108
 30
0.0
 40
0.5
100
AcDbArc
 50
180.0
 51
270.0
  0
LINE
  5
F76
330
131B
100
AcDbEntity
  8
profile aluminiowe
100
AcDbLine
 10
1351.967416669124
 20
399.9688892931101
 30
0.0
 11
1351.967416669124
 21
402.9688892931101
 31
0.0
  0
ARC
  5
F77
330
131B
100
AcDbEntity
  8
profile aluminiowe
100
AcDbCircle
 10
1351.467416669124
 20
402.9688892931104
 30
0.0
 40
0.5
100
AcDbArc
 50
0.0
 51
90.0
  0
LINE
  5
F78
330
131B
100
AcDbEntity
  8
profile aluminiowe
100
AcDbLine
 10
1340.467416669124
 20
403.468889293111
 30
0.0
 11
1351.467416669124
 21
403.468889293111
 31
0.0
  0
ARC
  5
F79
330
131B
100
AcDbEntity
  8
profile aluminiowe
100
AcDbCircle
 10
1340.467416669124
 20
402.9688892931104
 30
0.0
 40
0.5
100
AcDbArc
 50
90.0
 51
180.0
  0
LINE
  5
F7A
330
131B
100
AcDbEntity
  8
profile aluminiowe
100
AcDbLine
 10
1339.967416669124
 20
398.2573780375333
 30
0.0
 11
1339.967416669124
 21
402.9688892931106
 31
0.0
  0
LINE
  5
F7B
330
131B
100
AcDbEntity
  8
profile aluminiowe
100
AcDbLine
 10
1343.394373747378
 20
397.7573780375335
 30
0.0
 11
1340.467416669124
 21
397.7573780375324
 31
0.0
  0
ARC
  5
F7C
330
131B
100
AcDbEntity
  8
profile aluminiowe
100
AcDbCircle
 10
1340.467416669124
 20
398.2573780375324
 30
0.0
 40
0.5
100
AcDbArc
 50
180.0
 51
270.0
  0
LINE
  5
F7D
330
131B
100
AcDbEntity
  8
profile aluminiowe
100
AcDbLine
 10
1399.567416669124
 20
399.4688892931096
 30
0.0
 11
1399.567416669124
 21
401.8688892931103
 31
0.0
  0
LINE
  5
F7E
330
131B
100
AcDbEntity
  8
profile aluminiowe
100
AcDbLine
 10
1399.567416669124
 20
401.8688892931103
 30
0.0
 11
1408.367416669124
 21
401.8688892931098
 31
0.0
  0
LINE
  5
F7F
330
131B
100
AcDbEntity
  8
profile aluminiowe
100
AcDbLine
 10
1408.367416669124
 20
401.8688892931098
 30
0.0
 11
1408.367416669124
 21
399.4688892931098
 31
0.0
  0
LINE
  5
F80
330
131B
100
AcDbEntity
  8
profile aluminiowe
100
AcDbLine
 10
1408.367416669124
 20
399.4688892931098
 30
0.0
 11
1405.567416669124
 21
399.4688892931101
 31
0.0
  0
LINE
  5
F81
330
131B
100
AcDbEntity
  8
profile aluminiowe
100
AcDbLine
 10
1402.367416669124
 20
399.4688892931108
 30
0.0
 11
1399.567416669124
 21
399.4688892931096
 31
0.0
  0
LINE
  5
F82
330
131B
100
AcDbEntity
  8
profile aluminiowe
100
AcDbLine
 10
1375.267416669124
 20
399.4688892931102
 30
0.0
 11
1374.967416669124
 21
399.1688892931103
 31
0.0
  0
LINE
  5
F83
330
131B
100
AcDbEntity
  8
profile aluminiowe
100
AcDbLine
 10
1405.567416669124
 20
399.4688892931101
 30
0.0
 11
1406.070613280477
 21
398.0863679658702
 31
0.0
  0
ARC
  5
F84
330
131B
100
AcDbEntity
  8
profile aluminiowe
100
AcDbCircle
 10
1406.540459590871
 20
398.2573780375333
 30
0.0
 40
0.5
100
AcDbArc
 50
199.9999999999999
 51
270.0
  0
LINE
  5
F85
330
131B
100
AcDbEntity
  8
profile aluminiowe
100
AcDbLine
 10
1402.367416669124
 20
399.4688892931108
 30
0.0
 11
1401.864274846066
 21
398.0865184954769
 31
0.0
  0
LINE
  5
F86
330
131B
100
AcDbEntity
  8
profile aluminiowe
100
AcDbLine
 10
1374.967416669124
 20
397.7688892931101
 30
0.0
 11
1401.394213589482
 21
397.7575286133416
 31
0.0
  0
ARC
  5
F87
330
131B
100
AcDbEntity
  8
profile aluminiowe
100
AcDbCircle
 10
1401.394428535674
 20
398.2575285671394
 30
0.0
 40
0.5
100
AcDbArc
 50
269.9753689800158
 51
339.9999999999999
  0
LINE
  5
F88
330
131B
100
AcDbEntity
  8
profile aluminiowe
100
AcDbLine
 10
1397.467416669124
 20
399.4688892931099
 30
0.0
 11
1375.267416669124
 21
399.4688892931102
 31
0.0
  0
ARC
  5
F89
330
131B
100
AcDbEntity
  8
profile aluminiowe
100
AcDbCircle
 10
1397.467416669124
 20
399.9688892931105
 30
0.0
 40
0.5
100
AcDbArc
 50
270.0
 51
0.0
  0
LINE
  5
F8A
330
131B
100
AcDbEntity
  8
profile aluminiowe
100
AcDbLine
 10
1397.967416669124
 20
399.9688892931102
 30
0.0
 11
1397.967416669124
 21
402.9688892931104
 31
0.0
  0
ARC
  5
F8B
330
131B
100
AcDbEntity
  8
profile aluminiowe
100
AcDbCircle
 10
1398.467416669125
 20
402.9688892931105
 30
0.0
 40
0.5
100
AcDbArc
 50
90.0
 51
180.0
  0
LINE
  5
F8C
330
131B
100
AcDbEntity
  8
profile aluminiowe
100
AcDbLine
 10
1409.467416669124
 20
403.4688892931097
 30
0.0
 11
1398.467416669124
 21
403.4688892931096
 31
0.0
  0
ARC
  5
F8D
330
131B
100
AcDbEntity
  8
profile aluminiowe
100
AcDbCircle
 10
1409.467416669124
 20
402.9688892931098
 30
0.0
 40
0.5
100
AcDbArc
 50
0.0
 51
90.0
  0
LINE
  5
F8E
330
131B
100
AcDbEntity
  8
profile aluminiowe
100
AcDbLine
 10
1409.967416669124
 20
398.2573780375336
 30
0.0
 11
1409.967416669124
 21
402.9688892931108
 31
0.0
  0
LINE
  5
F8F
330
131B
100
AcDbEntity
  8
profile aluminiowe
100
AcDbLine
 10
1406.540459590871
 20
397.7573780375333
 30
0.0
 11
1409.467416669124
 21
397.7573780375332
 31
0.0
  0
ARC
  5
F90
330
131B
100
AcDbEntity
  8
profile aluminiowe
100
AcDbCircle
 10
1409.467416669124
 20
398.2573780375333
 30
0.0
 40
0.5
100
AcDbArc
 50
270.0
 51
0.0
  0
HATCH
  5
1150
330
131B
100
AcDbEntity
  8
uszczelka EPDM
100
AcDbHatch
 10
0.0
 20
0.0
 30
0.0
210
0.0
220
0.0
230
1.0
  2
SOLID
 70
     1
 71
     0
 91
        1
 92
        0
 93
       13
 72
     1
 10
1407.267416669124
 20
399.66888929311
 11
1406.967416669124
 21
401.6688892931105
 72
     1
 10
1406.967416669124
 20
401.6688892931105
 11
1401.267416669124
 21
401.6688892931103
 72
     1
 10
1401.267416669124
 20
401.6688892931103
 11
1400.867416669124
 21
399.6688892931098
 72
     1
 10
1400.867416669124
 20
399.6688892931098
 11
1402.667416669124
 21
399.6688892931105
 72
     1
 10
1402.667416669124
 20
399.6688892931105
 11
1401.967416669124
 21
397.5688892931107
 72
     1
 10
1401.967416669124
 20
397.5688892931107
 11
1399.967416669124
 21
397.5688892931107
 72
     1
 10
1399.967416669124
 20
397.5688892931107
 11
1399.888593822389
 21
396.0825478926936
 72
     1
 10
1399.888593822389
 20
396.0825478926936
 11
1414.928790856245
 21
396.1194111207173
 72
     1
 10
1414.928790856245
 20
396.1194111207173
 11
1410.167416669124
 21
400.5688892931102
 72
     1
 10
1410.167416669124
 20
400.5688892931102
 11
1410.167416669124
 21
397.5688892931107
 72
     1
 10
1410.167416669124
 20
397.5688892931107
 11
1406.067416669125
 21
397.5688892931099
 72
     1
 10
1406.067416669125
 20
397.5688892931099
 11
1405.267416669124
 21
399.6688892931097
 72
     1
 10
1405.267416669124
 20
399.6688892931097
 11
1407.267416669124
 21
399.66888929311
 97
        0
 75
     0
 76
     1
 98
        0
  0
LINE
  5
F92
330
131B
100
AcDbEntity
  8
sruby
100
AcDbLine
 10
1370.480911626173
 20
399.8332706740534
 30
0.0
 11
1370.480911626173
 21
402.79927625848
 31
0.0
  0
LINE
  5
F93
330
131B
100
AcDbEntity
  8
sruby
100
AcDbLine
 10
1371.230911626173
 20
403.7992762584804
 30
0.0
 11
1378.730911626173
 21
403.79927625848
 31
0.0
  0
LINE
  5
F94
330
131B
100
AcDbEntity
  8
sruby
100
AcDbLine
 10
1379.480911626173
 20
402.7992762584795
 30
0.0
 11
1379.480911626173
 21
399.8332706740536
 31
0.0
  0
LINE
  5
F95
330
131B
100
AcDbEntity
  8
sruby
100
AcDbLine
 10
1372.230911626173
 20
399.8332706740544
 30
0.0
 11
1372.230911626173
 21
402.8332706740541
 31
0.0
  0
LINE
  5
F96
330
131B
100
AcDbEntity
  8
sruby
100
AcDbLine
 10
1376.980911626173
 20
399.8332706740544
 30
0.0
 11
1376.980911626174
 21
402.8332706740533
 31
0.0
  0
LINE
  5
F97
330
131B
100
AcDbEntity
  8
sruby
100
AcDbLine
 10
1370.480911626173
 20
402.79927625848
 30
0.0
 11
1379.480911626173
 21
402.7992762584795
 31
0.0
  0
LINE
  5
F98
330
131B
100
AcDbEntity
  8
sruby
100
AcDbLine
 10
1376.980911626174
 20
402.8332706740533
 30
0.0
 11
1377.980911626173
 21
403.799276258479
 31
0.0
  0
LINE
  5
F99
330
131B
100
AcDbEntity
  8
sruby
100
AcDbLine
 10
1376.980911626174
 20
402.8332706740533
 30
0.0
 11
1375.980911626173
 21
403.7992762584785
 31
0.0
  0
LINE
  5
F9A
330
131B
100
AcDbEntity
  8
sruby
100
AcDbLine
 10
1379.480911626173
 20
402.7992762584795
 30
0.0
 11
1378.730911626173
 21
403.79927625848
 31
0.0
  0
LINE
  5
F9B
330
131B
100
AcDbEntity
  8
sruby
100
AcDbLine
 10
1372.230911626173
 20
402.8332706740541
 30
0.0
 11
1373.230911626173
 21
403.7992762584803
 31
0.0
  0
LINE
  5
F9C
330
131B
100
AcDbEntity
  8
sruby
100
AcDbLine
 10
1372.230911626173
 20
402.8332706740541
 30
0.0
 11
1371.230911626173
 21
403.7992762584804
 31
0.0
  0
LINE
  5
F9D
330
131B
100
AcDbEntity
  8
sruby
100
AcDbLine
 10
1370.480911626173
 20
402.79927625848
 30
0.0
 11
1371.230911626173
 21
403.7992762584804
 31
0.0
  0
LINE
  5
F9E
330
131B
100
AcDbEntity
  8
uszczelka EPDM
100
AcDbLine
 10
1339.767416669124
 20
400.5688892931103
 30
0.0
 11
1339.767416669124
 21
397.5688892931108
 31
0.0
  0
HATCH
  5
1152
330
131B
100
AcDbEntity
  8
uszczelka EPDM
100
AcDbHatch
 10
0.0
 20
0.0
 30
0.0
210
0.0
220
0.0
230
1.0
  2
SOLID
 70
     1
 71
     0
 91
        1
 92
        0
 93
       13
 72
     1
 10
1342.667416669124
 20
399.66888929311
 11
1342.967416669124
 21
401.6688892931104
 72
     1
 10
1342.967416669124
 20
401.6688892931104
 11
1348.667416669124
 21
401.6688892931103
 72
     1
 10
1348.667416669124
 20
401.6688892931103
 11
1349.067416669124
 21
399.66888929311
 72
     1
 10
1349.067416669124
 20
399.66888929311
 11
1347.267416669124
 21
399.6688892931102
 72
     1
 10
1347.267416669124
 20
399.6688892931102
 11
1347.967416669124
 21
397.5688892931107
 72
     1
 10
1347.967416669124
 20
397.5688892931107
 11
1349.967416669124
 21
397.568889293111
 72
     1
 10
1349.967416669124
 20
397.568889293111
 11
1350.046239515859
 21
396.0825478926938
 72
     1
 10
1350.046239515859
 20
396.0825478926938
 11
1335.006042482002
 21
396.1194111207175
 72
     1
 10
1335.006042482002
 20
396.1194111207175
 11
1339.767416669124
 21
400.5688892931103
 72
     1
 10
1339.767416669124
 20
400.5688892931103
 11
1339.767416669124
 21
397.5688892931108
 72
     1
 10
1339.767416669124
 20
397.5688892931108
 11
1343.867416669124
 21
397.5688892931098
 72
     1
 10
1343.867416669124
 20
397.5688892931098
 11
1344.667416669124
 21
399.6688892931101
 72
     1
 10
1344.667416669124
 20
399.6688892931101
 11
1342.667416669124
 21
399.66888929311
 97
        0
 75
     0
 76
     1
 98
        0
  0
LINE
  5
FA0
330
131B
100
AcDbEntity
  8
sruby
100
AcDbLine
 10
1372.980911626173
 20
397.7680353096432
 30
0.0
 11
1372.980911626173
 21
380.8187302880609
 31
0.0
  0
LINE
  5
FA1
330
131B
100
AcDbEntity
  8
sruby
100
AcDbLine
 10
1376.980911626173
 20
378.8187302880601
 30
0.0
 11
1376.980911626173
 21
397.7697548793365
 31
0.0
  0
LINE
  5
FA2
330
131B
100
AcDbEntity
  8
profile aluminiowe
100
AcDbLine
 10
1374.967416669124
 20
397.7688892931101
 30
0.0
 11
1348.540619748766
 21
397.7575286133413
 31
0.0
  0
LINE
  5
FA3
330
131B
100
AcDbEntity
  8
swietlik poliweglan
100
AcDbLine
 10
1363.005120214981
 20
380.0978699518716
 30
0.0
 11
1363.005120214981
 21
396.0978699518716
 31
0.0
  0
LINE
  5
FA4
330
131B
100
AcDbEntity
  8
swietlik poliweglan
100
AcDbLine
 10
1353.005120214981
 20
380.0978699518716
 30
0.0
 11
1353.005120214981
 21
396.0978699518716
 31
0.0
  0
LINE
  5
FA5
330
131B
100
AcDbEntity
  8
swietlik poliweglan
100
AcDbLine
 10
1343.005120214981
 20
380.0978699518716
 30
0.0
 11
1343.005120214981
 21
396.0978699518716
 31
0.0
  0
LINE
  5
FA6
330
131B
100
AcDbEntity
  8
swietlik poliweglan
100
AcDbLine
 10
1333.005120214981
 20
380.0978699518716
 30
0.0
 11
1333.005120214981
 21
396.0978699518716
 31
0.0
  0
LINE
  5
FA7
330
131B
100
AcDbEntity
  8
swietlik poliweglan
100
AcDbLine
 10
1323.005120214981
 20
380.0978699518716
 30
0.0
 11
1323.005120214981
 21
396.0978699518716
 31
0.0
  0
LINE
  5
FA8
330
131B
100
AcDbEntity
  8
swietlik poliweglan
100
AcDbLine
 10
1313.005120214981
 20
380.0978699518716
 30
0.0
 11
1313.005120214981
 21
396.0978699518716
 31
0.0
  0
LINE
  5
FA9
330
131B
100
AcDbEntity
  8
swietlik poliweglan
100
AcDbLine
 10
1303.005120214981
 20
380.0978699518716
 30
0.0
 11
1303.005120214981
 21
396.0978699518716
 31
0.0
  0
LINE
  5
FAA
330
131B
100
AcDbEntity
  8
swietlik poliweglan
100
AcDbLine
 10
1293.005120214981
 20
380.0978699518716
 30
0.0
 11
1293.005120214981
 21
396.0978699518716
 31
0.0
  0
LINE
  5
FAB
330
131B
100
AcDbEntity
  8
swietlik poliweglan
100
AcDbLine
 10
1283.005120214981
 20
380.0978699518718
 30
0.0
 11
1283.005120214981
 21
396.0978699518718
 31
0.0
  0
LINE
  5
FAC
330
131B
100
AcDbEntity
  8
swietlik poliweglan
100
AcDbLine
 10
1363.005120214981
 20
396.0978699518716
 30
0.0
 11
1269.00512021498
 21
396.0978699518719
 31
0.0
  0
LINE
  5
FAD
330
131B
100
AcDbEntity
  8
swietlik poliweglan
100
AcDbLine
 10
1269.00512021498
 20
392.8978699518723
 30
0.0
 11
1363.005120214981
 21
392.8978699518717
 31
0.0
  0
LINE
  5
FAE
330
131B
100
AcDbEntity
  8
swietlik poliweglan
100
AcDbLine
 10
1269.00512021498
 20
389.6978699518723
 30
0.0
 11
1363.005120214981
 21
389.6978699518717
 31
0.0
  0
LINE
  5
FAF
330
131B
100
AcDbEntity
  8
swietlik poliweglan
100
AcDbLine
 10
1269.00512021498
 20
386.4978699518721
 30
0.0
 11
1363.005120214981
 21
386.4978699518717
 31
0.0
  0
LINE
  5
FB0
330
131B
100
AcDbEntity
  8
swietlik poliweglan
100
AcDbLine
 10
1269.00512021498
 20
383.2978699518723
 30
0.0
 11
1363.005120214981
 21
383.2978699518717
 31
0.0
  0
LINE
  5
FB1
330
131B
100
AcDbEntity
  8
swietlik poliweglan
100
AcDbLine
 10
1269.00512021498
 20
380.097869951872
 30
0.0
 11
1363.005120214981
 21
380.0978699518716
 31
0.0
  0
LINE
  5
FB2
330
131B
100
AcDbEntity
  8
swietlik poliweglan
100
AcDbLine
 10
1387.005120214981
 20
380.0978699518716
 30
0.0
 11
1387.005120214981
 21
396.0978699518716
 31
0.0
  0
LINE
  5
FB3
330
131B
100
AcDbEntity
  8
swietlik poliweglan
100
AcDbLine
 10
1387.005120214981
 20
396.0978699518716
 30
0.0
 11
1499.005120214981
 21
396.0978699518719
 31
0.0
  0
LINE
  5
FB4
330
131B
100
AcDbEntity
  8
swietlik poliweglan
100
AcDbLine
 10
1499.005120214981
 20
380.0978699518722
 30
0.0
 11
1387.005120214981
 21
380.0978699518716
 31
0.0
  0
LINE
  5
FB5
330
131B
100
AcDbEntity
  8
swietlik poliweglan
100
AcDbLine
 10
1499.005120214981
 20
383.2978699518721
 30
0.0
 11
1387.005120214981
 21
383.2978699518717
 31
0.0
  0
LINE
  5
FB6
330
131B
100
AcDbEntity
  8
swietlik poliweglan
100
AcDbLine
 10
1499.005120214981
 20
386.4978699518722
 30
0.0
 11
1387.005120214981
 21
386.4978699518717
 31
0.0
  0
LINE
  5
FB7
330
131B
100
AcDbEntity
  8
swietlik poliweglan
100
AcDbLine
 10
1499.005120214981
 20
389.6978699518722
 30
0.0
 11
1387.005120214981
 21
389.6978699518717
 31
0.0
  0
LINE
  5
FB8
330
131B
100
AcDbEntity
  8
swietlik poliweglan
100
AcDbLine
 10
1499.005120214981
 20
392.8978699518723
 30
0.0
 11
1387.005120214981
 21
392.8978699518717
 31
0.0
  0
LINE
  5
FB9
330
131B
100
AcDbEntity
  8
swietlik poliweglan
100
AcDbLine
 10
1397.005120214981
 20
380.0978699518716
 30
0.0
 11
1397.005120214981
 21
396.0978699518716
 31
0.0
  0
LINE
  5
FBA
330
131B
100
AcDbEntity
  8
swietlik poliweglan
100
AcDbLine
 10
1407.005120214981
 20
380.0978699518716
 30
0.0
 11
1407.005120214981
 21
396.0978699518716
 31
0.0
  0
LINE
  5
FBB
330
131B
100
AcDbEntity
  8
swietlik poliweglan
100
AcDbLine
 10
1417.005120214981
 20
380.0978699518716
 30
0.0
 11
1417.005120214981
 21
396.0978699518716
 31
0.0
  0
LINE
  5
FBC
330
131B
100
AcDbEntity
  8
swietlik poliweglan
100
AcDbLine
 10
1427.005120214981
 20
380.0978699518716
 30
0.0
 11
1427.005120214981
 21
396.0978699518716
 31
0.0
  0
LINE
  5
FBD
330
131B
100
AcDbEntity
  8
swietlik poliweglan
100
AcDbLine
 10
1437.005120214981
 20
380.0978699518716
 30
0.0
 11
1437.005120214981
 21
396.0978699518716
 31
0.0
  0
LINE
  5
FBE
330
131B
100
AcDbEntity
  8
swietlik poliweglan
100
AcDbLine
 10
1447.005120214981
 20
380.0978699518716
 30
0.0
 11
1447.005120214981
 21
396.0978699518716
 31
0.0
  0
LINE
  5
FBF
330
131B
100
AcDbEntity
  8
swietlik poliweglan
100
AcDbLine
 10
1457.005120214981
 20
380.0978699518716
 30
0.0
 11
1457.005120214981
 21
396.0978699518716
 31
0.0
  0
LINE
  5
FC0
330
131B
100
AcDbEntity
  8
swietlik poliweglan
100
AcDbLine
 10
1467.005120214981
 20
380.0978699518716
 30
0.0
 11
1467.005120214981
 21
396.0978699518716
 31
0.0
  0
LINE
  5
FC1
330
131B
100
AcDbEntity
  8
swietlik poliweglan
100
AcDbLine
 10
1477.005120214981
 20
380.0978699518716
 30
0.0
 11
1477.005120214981
 21
396.0978699518716
 31
0.0
  0
LINE
  5
FC2
330
131B
100
AcDbEntity
  8
swietlik poliweglan
100
AcDbLine
 10
1487.005120214981
 20
380.0978699518716
 30
0.0
 11
1487.005120214981
 21
396.0978699518716
 31
0.0
  0
LINE
  5
FC3
330
131B
100
AcDbEntity
  8
sruby
100
AcDbLine
 10
1373.005120214981
 20
378.733295582491
 30
0.0
 11
1373.005120214981
 21
376.73329558249
 31
0.0
  0
LINE
  5
FC4
330
131B
100
AcDbEntity
  8
sruby
100
AcDbLine
 10
1372.005120214981
 20
377.6329650413705
 30
0.0
 11
1373.005120214981
 21
377.4662983747035
 31
0.0
  0
LINE
  5
FC5
330
131B
100
AcDbEntity
  8
sruby
100
AcDbLine
 10
1377.005120214981
 20
378.7996317080367
 30
0.0
 11
1378.005120214981
 21
378.6329650413716
 31
0.0
  0
LINE
  5
FC6
330
131B
100
AcDbEntity
  8
sruby
100
AcDbLine
 10
1378.005120214981
 20
378.6329650413716
 30
0.0
 11
1372.005120214981
 21
377.6329650413705
 31
0.0
  0
LINE
  5
FC7
330
131B
100
AcDbEntity
  8
sruby
100
AcDbLine
 10
1377.005120214981
 20
376.7332955824902
 30
0.0
 11
1377.005120214981
 21
378.7996317080367
 31
0.0
  0
LINE
  5
FC8
330
131B
100
AcDbEntity
  8
sruby
100
AcDbLine
 10
1373.005120214981
 20
376.833295582491
 30
0.0
 11
1373.005120214981
 21
374.83329558249
 31
0.0
  0
LINE
  5
FC9
330
131B
100
AcDbEntity
  8
sruby
100
AcDbLine
 10
1372.005120214981
 20
375.7329650413706
 30
0.0
 11
1373.005120214981
 21
375.5662983747035
 31
0.0
  0
LINE
  5
FCA
330
131B
100
AcDbEntity
  8
sruby
100
AcDbLine
 10
1377.005120214981
 20
376.8996317080367
 30
0.0
 11
1378.005120214981
 21
376.7329650413716
 31
0.0
  0
LINE
  5
FCB
330
131B
100
AcDbEntity
  8
sruby
100
AcDbLine
 10
1378.005120214981
 20
376.7329650413716
 30
0.0
 11
1372.005120214981
 21
375.7329650413706
 31
0.0
  0
LINE
  5
FCC
330
131B
100
AcDbEntity
  8
sruby
100
AcDbLine
 10
1377.005120214981
 20
374.8332955824902
 30
0.0
 11
1377.005120214981
 21
376.8996317080367
 31
0.0
  0
LINE
  5
FCD
330
131B
100
AcDbEntity
  8
sruby
100
AcDbLine
 10
1373.005120214981
 20
374.83329558249
 30
0.0
 11
1377.005120214981
 21
374.8332955824902
 31
0.0
  0
HATCH
  5
114F
330
131B
100
AcDbEntity
  8
profile alu kresk
100
AcDbHatch
 10
0.0
 20
0.0
 30
0.0
210
0.0
220
0.0
230
1.0
  2
ANSI31
 70
     0
 71
     0
 91
        1
 92
        0
 93
       40
 72
     1
 10
1350.367416669125
 20
399.4688892931107
 11
1350.367416669125
 21
401.8688892931107
 72
     1
 10
1350.367416669125
 20
401.8688892931107
 11
1341.567416669125
 21
401.8688892931106
 72
     1
 10
1341.567416669125
 20
401.8688892931106
 11
1341.567416669125
 21
399.4688892931108
 72
     1
 10
1341.567416669125
 20
399.4688892931108
 11
1344.367416669125
 21
399.4688892931106
 72
     1
 10
1344.367416669125
 20
399.4688892931106
 11
1343.864220057771
 21
398.0863679658706
 72
     2
 10
1343.394373747378
 20
398.2573780375335
 40
0.5
 50
20.00000000000008
 51
90.0
 73
     0
 72
     1
 10
1343.394373747378
 20
397.7573780375335
 11
1340.467416669125
 21
397.7573780375336
 72
     2
 10
1340.467416669125
 20
398.2573780375335
 40
0.5
 50
90.0
 51
180.0
 73
     0
 72
     1
 10
1339.967416669125
 20
398.2573780375335
 11
1339.967416669125
 21
402.9688892931107
 72
     2
 10
1340.467416669125
 20
402.9688892931106
 40
0.5
 50
180.0
 51
270.0
 73
     0
 72
     1
 10
1340.467416669125
 20
403.4688892931106
 11
1351.467416669125
 21
403.4688892931107
 72
     2
 10
1351.467416669125
 20
402.9688892931107
 40
0.5
 50
270.0
 51
360.0
 73
     0
 72
     1
 10
1351.967416669125
 20
402.9688892931107
 11
1351.967416669125
 21
399.9688892931107
 72
     2
 10
1352.467416669125
 20
399.9688892931106
 40
0.5
 50
180.0
 51
270.0
 73
     1
 72
     1
 10
1352.467416669125
 20
399.4688892931106
 11
1374.667416669125
 21
399.4688892931107
 72
     1
 10
1374.667416669125
 20
399.4688892931107
 11
1374.967416669125
 21
399.1688892931106
 72
     1
 10
1374.967416669125
 20
399.1688892931106
 11
1375.267416669125
 21
399.4688892931107
 72
     1
 10
1375.267416669125
 20
399.4688892931107
 11
1397.467416669125
 21
399.4688892931106
 72
     2
 10
1397.467416669125
 20
399.9688892931106
 40
0.5
 50
270.0
 51
360.0
 73
     1
 72
     1
 10
1397.967416669125
 20
399.9688892931106
 11
1397.967416669125
 21
402.9688892931107
 72
     2
 10
1398.467416669125
 20
402.9688892931108
 40
0.5
 50
180.0
 51
270.0
 73
     0
 72
     1
 10
1398.467416669125
 20
403.4688892931108
 11
1409.467416669125
 21
403.4688892931106
 72
     2
 10
1409.467416669125
 20
402.9688892931106
 40
0.5
 50
270.0
 51
360.0
 73
     0
 72
     1
 10
1409.967416669125
 20
402.9688892931106
 11
1409.967416669125
 21
398.2573780375335
 72
     2
 10
1409.467416669125
 20
398.2573780375335
 40
0.5
 50
0.0
 51
90.0
 73
     0
 72
     1
 10
1409.467416669125
 20
397.7573780375335
 11
1406.540459590871
 21
397.7573780375335
 72
     2
 10
1406.540459590871
 20
398.2573780375335
 40
0.5
 50
90.0
 51
159.9999999999999
 73
     0
 72
     1
 10
1406.070613280478
 20
398.0863679658706
 11
1405.567416669125
 21
399.4688892931109
 72
     1
 10
1405.567416669125
 20
399.4688892931109
 11
1408.367416669125
 21
399.4688892931106
 72
     1
 10
1408.367416669125
 20
399.4688892931106
 11
1408.367416669125
 21
401.8688892931108
 72
     1
 10
1408.367416669125
 20
401.8688892931108
 11
1399.567416669125
 21
401.8688892931107
 72
     1
 10
1399.567416669125
 20
401.8688892931107
 11
1399.567416669125
 21
399.4688892931105
 72
     1
 10
1399.567416669125
 20
399.4688892931105
 11
1402.367416669125
 21
399.4688892931108
 72
     1
 10
1402.367416669125
 20
399.4688892931108
 11
1401.864274846067
 21
398.0865184954772
 72
     2
 10
1401.394428535674
 20
398.25752856714
 40
0.5
 50
20.00000000000008
 51
90.02463101998418
 73
     0
 72
     1
 10
1401.394213589482
 20
397.7575286133419
 11
1374.967416669125
 21
397.7688892931107
 72
     1
 10
1374.967416669125
 20
397.7688892931107
 11
1348.540619748767
 21
397.7575286133419
 72
     2
 10
1348.540404802575
 20
398.25752856714
 40
0.5
 50
89.97536898001587
 51
159.9999999999999
 73
     0
 72
     1
 10
1348.070558492182
 20
398.0865184954772
 11
1347.567416669125
 21
399.4688892931106
 72
     1
 10
1347.567416669125
 20
399.4688892931106
 11
1350.367416669125
 21
399.4688892931107
 97
        0
 75
     0
 76
     1
 52
0.0
 41
0.5
 77
     0
 78
     1
 53
45.0
 43
0.0
 44
0.0
 45
-1.122532015133644
 46
1.122532015133644
 79
     0
 98
        0
1001
ACAD
1010
0.0
1020
0.0
1030
0.0
  0
LINE
  5
FD1
330
131B
100
AcDbEntity
  8
sruby
100
AcDbLine
 10
936.0
 20
385.9854596140065
 30
0.0
 11
936.0
 21
383.9854596140055
 31
0.0
  0
LINE
  5
FD2
330
131B
100
AcDbEntity
  8
sruby
100
AcDbLine
 10
941.0
 20
395.985459614006
 30
0.0
 11
935.0
 21
394.9854596140056
 31
0.0
  0
LINE
  5
FD3
330
131B
100
AcDbEntity
  8
sruby
100
AcDbLine
 10
935.0
 20
394.9854596140056
 30
0.0
 11
936.0
 21
394.8187929473393
 31
0.0
  0
LINE
  5
FD4
330
131B
100
AcDbEntity
  8
sruby
100
AcDbLine
 10
941.0
 20
393.9854596140055
 30
0.0
 11
940.0
 21
393.8187929473388
 31
0.0
  0
LINE
  5
FD5
330
131B
100
AcDbEntity
  8
sruby
100
AcDbLine
 10
935.0
 20
392.9854596140056
 30
0.0
 11
936.0
 21
392.8187929473393
 31
0.0
  0
LINE
  5
FD6
330
131B
100
AcDbEntity
  8
sruby
100
AcDbLine
 10
936.0
 20
393.1521262806724
 30
0.0
 11
935.0
 21
392.9854596140056
 31
0.0
  0
LINE
  5
FD7
330
131B
100
AcDbEntity
  8
sruby
100
AcDbLine
 10
940.0
 20
394.1521262806719
 30
0.0
 11
941.0
 21
393.9854596140055
 31
0.0
  0
LINE
  5
FD8
330
131B
100
AcDbEntity
  8
sruby
100
AcDbLine
 10
941.0
 20
393.9854596140055
 30
0.0
 11
935.0
 21
392.9854596140056
 31
0.0
  0
LINE
  5
FD9
330
131B
100
AcDbEntity
  8
sruby
100
AcDbLine
 10
936.0
 20
392.985459614006
 30
0.0
 11
936.0
 21
391.9854596140061
 31
0.0
  0
LINE
  5
FDA
330
131B
100
AcDbEntity
  8
sruby
100
AcDbLine
 10
941.0
 20
391.8851290728854
 30
0.0
 11
935.0
 21
390.8851290728857
 31
0.0
  0
LINE
  5
FDB
330
131B
100
AcDbEntity
  8
sruby
100
AcDbLine
 10
935.0
 20
390.8851290728857
 30
0.0
 11
936.0
 21
390.7184624062192
 31
0.0
  0
LINE
  5
FDC
330
131B
100
AcDbEntity
  8
sruby
100
AcDbLine
 10
941.0
 20
389.8851290728853
 30
0.0
 11
935.0
 21
388.8851290728856
 31
0.0
  0
LINE
  5
FDD
330
131B
100
AcDbEntity
  8
sruby
100
AcDbLine
 10
935.0
 20
388.8851290728856
 30
0.0
 11
936.0
 21
388.7184624062189
 31
0.0
  0
LINE
  5
FDE
330
131B
100
AcDbEntity
  8
sruby
100
AcDbLine
 10
941.0
 20
387.8851290728852
 30
0.0
 11
935.0
 21
386.885129072886
 31
0.0
  0
LINE
  5
FDF
330
131B
100
AcDbEntity
  8
sruby
100
AcDbLine
 10
935.0
 20
386.885129072886
 30
0.0
 11
936.0
 21
386.718462406219
 31
0.0
  0
LINE
  5
FE0
330
131B
100
AcDbEntity
  8
sruby
100
AcDbLine
 10
941.0
 20
385.8851290728871
 30
0.0
 11
940.0
 21
385.7184624062197
 31
0.0
  0
LINE
  5
FE1
330
131B
100
AcDbEntity
  8
sruby
100
AcDbLine
 10
935.0
 20
384.8851290728861
 30
0.0
 11
936.0
 21
384.718462406219
 31
0.0
  0
LINE
  5
FE2
330
131B
100
AcDbEntity
  8
sruby
100
AcDbLine
 10
936.0
 20
385.0517957395522
 30
0.0
 11
935.0
 21
384.8851290728861
 31
0.0
  0
LINE
  5
FE3
330
131B
100
AcDbEntity
  8
sruby
100
AcDbLine
 10
940.0
 20
392.0517957395528
 30
0.0
 11
941.0
 21
391.8851290728854
 31
0.0
  0
LINE
  5
FE4
330
131B
100
AcDbEntity
  8
sruby
100
AcDbLine
 10
940.0
 20
390.0517957395514
 30
0.0
 11
941.0
 21
389.8851290728853
 31
0.0
  0
LINE
  5
FE5
330
131B
100
AcDbEntity
  8
sruby
100
AcDbLine
 10
940.0
 20
388.0517957395522
 30
0.0
 11
941.0
 21
387.8851290728852
 31
0.0
  0
LINE
  5
FE6
330
131B
100
AcDbEntity
  8
sruby
100
AcDbLine
 10
940.0
 20
386.0517957395522
 30
0.0
 11
941.0
 21
385.8851290728871
 31
0.0
  0
LINE
  5
FE7
330
131B
100
AcDbEntity
  8
sruby
100
AcDbLine
 10
941.0
 20
385.8851290728871
 30
0.0
 11
935.0
 21
384.8851290728861
 31
0.0
  0
LINE
  5
FE8
330
131B
100
AcDbEntity
  8
sruby
100
AcDbLine
 10
936.0
 20
384.8851290728858
 30
0.0
 11
936.0
 21
383.8851290728854
 31
0.0
  0
LINE
  5
FE9
330
131B
100
AcDbEntity
  8
profile aluminiowe
100
AcDbLine
 10
937.991848126689
 20
404.6559950579651
 30
0.0
 11
937.6918481266888
 21
404.3559950579652
 31
0.0
  0
LINE
  5
FEA
330
131B
100
AcDbEntity
  8
sruby
100
AcDbLine
 10
933.5
 20
404.999999999999
 30
0.0
 11
933.5
 21
407.9660055844256
 31
0.0
  0
LINE
  5
FEB
330
131B
100
AcDbEntity
  8
sruby
100
AcDbLine
 10
934.25
 20
408.966005584426
 30
0.0
 11
941.75
 21
408.9660055844256
 31
0.0
  0
LINE
  5
FEC
330
131B
100
AcDbEntity
  8
sruby
100
AcDbLine
 10
942.5
 20
407.9660055844251
 30
0.0
 11
942.5
 21
404.9999999999992
 31
0.0
  0
LINE
  5
FED
330
131B
100
AcDbEntity
  8
sruby
100
AcDbLine
 10
935.25
 20
405.0
 30
0.0
 11
935.25
 21
407.9999999999997
 31
0.0
  0
LINE
  5
FEE
330
131B
100
AcDbEntity
  8
sruby
100
AcDbLine
 10
940.0
 20
405.0
 30
0.0
 11
940.0000000000011
 21
407.9999999999989
 31
0.0
  0
LINE
  5
FEF
330
131B
100
AcDbEntity
  8
sruby
100
AcDbLine
 10
933.5
 20
407.9660055844256
 30
0.0
 11
942.5
 21
407.9660055844251
 31
0.0
  0
LINE
  5
FF0
330
131B
100
AcDbEntity
  8
sruby
100
AcDbLine
 10
940.0000000000011
 20
407.9999999999989
 30
0.0
 11
941.0
 21
408.9660055844246
 31
0.0
  0
LINE
  5
FF1
330
131B
100
AcDbEntity
  8
sruby
100
AcDbLine
 10
940.0000000000011
 20
407.9999999999989
 30
0.0
 11
939.0
 21
408.9660055844241
 31
0.0
  0
LINE
  5
FF2
330
131B
100
AcDbEntity
  8
sruby
100
AcDbLine
 10
942.5
 20
407.9660055844251
 30
0.0
 11
941.75
 21
408.9660055844256
 31
0.0
  0
LINE
  5
FF3
330
131B
100
AcDbEntity
  8
sruby
100
AcDbLine
 10
935.25
 20
407.9999999999997
 30
0.0
 11
936.25
 21
408.9660055844259
 31
0.0
  0
LINE
  5
FF4
330
131B
100
AcDbEntity
  8
sruby
100
AcDbLine
 10
935.25
 20
407.9999999999997
 30
0.0
 11
934.25
 21
408.966005584426
 31
0.0
  0
LINE
  5
FF5
330
131B
100
AcDbEntity
  8
sruby
100
AcDbLine
 10
933.5
 20
407.9660055844256
 30
0.0
 11
934.25
 21
408.966005584426
 31
0.0
  0
LINE
  5
FF6
330
131B
100
AcDbEntity
  8
sruby
100
AcDbLine
 10
936.0
 20
402.9347646355888
 30
0.0
 11
936.0
 21
385.9854596140065
 31
0.0
  0
LINE
  5
FF7
330
131B
100
AcDbEntity
  8
sruby
100
AcDbLine
 10
940.0
 20
383.9854596140057
 30
0.0
 11
940.0
 21
402.9364842052821
 31
0.0
  0
LINE
  5
FF8
330
131B
100
AcDbEntity
  8
sruby
100
AcDbLine
 10
936.024208588808
 20
383.9000249084366
 30
0.0
 11
936.024208588808
 21
381.9000249084356
 31
0.0
  0
LINE
  5
FF9
330
131B
100
AcDbEntity
  8
sruby
100
AcDbLine
 10
935.024208588808
 20
382.7996943673161
 30
0.0
 11
936.024208588808
 21
382.6330277006491
 31
0.0
  0
LINE
  5
FFA
330
131B
100
AcDbEntity
  8
sruby
100
AcDbLine
 10
940.024208588808
 20
383.9663610339823
 30
0.0
 11
941.024208588808
 21
383.7996943673172
 31
0.0
  0
LINE
  5
FFB
330
131B
100
AcDbEntity
  8
sruby
100
AcDbLine
 10
941.024208588808
 20
383.7996943673172
 30
0.0
 11
935.024208588808
 21
382.7996943673161
 31
0.0
  0
LINE
  5
FFC
330
131B
100
AcDbEntity
  8
sruby
100
AcDbLine
 10
940.024208588808
 20
381.9000249084358
 30
0.0
 11
940.024208588808
 21
383.9663610339823
 31
0.0
  0
LINE
  5
FFD
330
131B
100
AcDbEntity
  8
sruby
100
AcDbLine
 10
936.024208588808
 20
382.0000249084366
 30
0.0
 11
936.024208588808
 21
380.0000249084356
 31
0.0
  0
LINE
  5
FFE
330
131B
100
AcDbEntity
  8
sruby
100
AcDbLine
 10
935.024208588808
 20
380.8996943673162
 30
0.0
 11
936.024208588808
 21
380.7330277006491
 31
0.0
  0
LINE
  5
FFF
330
131B
100
AcDbEntity
  8
sruby
100
AcDbLine
 10
940.024208588808
 20
382.0663610339823
 30
0.0
 11
941.024208588808
 21
381.8996943673172
 31
0.0
  0
LINE
  5
1000
330
131B
100
AcDbEntity
  8
sruby
100
AcDbLine
 10
941.024208588808
 20
381.8996943673172
 30
0.0
 11
935.024208588808
 21
380.8996943673162
 31
0.0
  0
LINE
  5
1001
330
131B
100
AcDbEntity
  8
sruby
100
AcDbLine
 10
940.024208588808
 20
380.0000249084358
 30
0.0
 11
940.024208588808
 21
382.0663610339823
 31
0.0
  0
LINE
  5
1002
330
131B
100
AcDbEntity
  8
sruby
100
AcDbLine
 10
936.024208588808
 20
380.0000249084356
 30
0.0
 11
940.024208588808
 21
380.0000249084358
 31
0.0
  0
MTEXT
  5
1003
330
131B
100
AcDbEntity
  8
wymiary
100
AcDbMText
 10
994.4412448273198
 20
457.3064152416731
 30
0.0
 40
6.0
 41
100.0
 46
0.0
 71
     7
 72
     1
  1
profil\~górny\PE-2088
  7
textstyle24
 73
     1
 44
1.0
  0
LEADER
  5
1004
330
131B
100
AcDbEntity
  8
wymiary
100
AcDbLeader
  3
QCADDimStyle
 76
     3
 10
975.6151582109677
 20
403.4976848197405
 30
0.0
 10
1001.44124482732
 20
436.3064152416734
 30
0.0
 10
1051.44124482732
 20
436.3064152416734
 30
0.0
  0
LEADER
  5
1005
330
131B
100
AcDbEntity
  8
wymiary
100
AcDbLeader
  3
QCADDimStyle
 76
     3
 10
940.4170362385129
 20
409.0078215482819
 30
0.0
 10
981.4412448273198
 20
476.3064152416734
 30
0.0
 10
1031.44124482732
 20
476.3064152416734
 30
0.0
  0
MTEXT
  5
1006
330
131B
100
AcDbEntity
  8
wymiary
100
AcDbMText
 10
983.4412448273198
 20
477.3064152416736
 30
0.0
 40
6.0
 41
100.0
 46
0.0
 71
     7
 72
     1
  1
sruba\Pspinajaca\Pz\~podkladka
  7
textstyle25
 73
     1
 44
1.0
  0
MTEXT
  5
1007
330
131B
100
AcDbEntity
  8
wymiary
100
AcDbMText
 10
1004.44124482732
 20
436.3064152416735
 30
0.0
 40
6.0
 41
100.0
 46
0.0
 71
     7
 72
     1
  1
uszczelka\Ptypu\~B
  7
textstyle26
 73
     1
 44
1.0
  0
LEADER
  5
1008
330
131B
100
AcDbEntity
  8
wymiary
100
AcDbLeader
  3
QCADDimStyle
 76
     3
 10
960.9035403639419
 20
408.6774345829114
 30
0.0
 10
991.4412448273198
 20
456.3064152416734
 30
0.0
 10
1035.44124482732
 20
456.3064152416734
 30
0.0
  0
LEADER
  5
1009
330
131B
100
AcDbEntity
  8
wymiary
100
AcDbLeader
  3
QCADDimStyle
 76
     3
 10
990.9811639878117
 20
385.2800975986439
 30
0.0
 10
1010.0
 20
350.0
 30
0.0
 10
1087.0
 20
350.0
 30
0.0
  0
MTEXT
  5
100A
330
131B
100
AcDbEntity
  8
wymiary
100
AcDbMText
 10
1010.877056277829
 20
351.1320194142099
 30
0.0
 40
6.0
 41
100.0
 46
0.0
 71
     7
 72
     1
  1
plyta poliweglanowa\Ppokrycie swietlika
  7
textstyle27
 73
     1
 44
1.0
  0
LINE
  5
1053
330
131B
100
AcDbEntity
  8
profile aluminiowe
100
AcDbLine
 10
1410.0
 20
370.0000000000005
 30
0.0
 11
1410.0
 21
379.5000000000005
 31
0.0
  0
ARC
  5
1054
330
131B
100
AcDbEntity
  8
profile aluminiowe
100
AcDbCircle
 10
1409.5
 20
379.5000000000005
 30
0.0
 40
0.5
100
AcDbArc
 50
0.0
 51
89.99999999999999
  0
ARC
  5
1055
330
131B
100
AcDbEntity
  8
profile aluminiowe
100
AcDbCircle
 10
1408.0
 20
372.3000000000003
 30
0.0
 40
0.5
100
AcDbArc
 50
270.0
 51
0.0
  0
LINE
  5
1056
330
131B
100
AcDbEntity
  8
profile aluminiowe
100
AcDbLine
 10
1408.0
 20
371.8000000000004
 30
0.0
 11
1400.0
 21
371.8000000000003
 31
0.0
  0
ARC
  5
1057
330
131B
100
AcDbEntity
  8
profile aluminiowe
100
AcDbCircle
 10
1400.0
 20
372.3000000000004
 30
0.0
 40
0.5
100
AcDbArc
 50
180.0
 51
270.0
  0
LINE
  5
1058
330
131B
100
AcDbEntity
  8
profile aluminiowe
100
AcDbLine
 10
1399.5
 20
372.3000000000004
 30
0.0
 11
1399.5
 21
378.0000000000004
 31
0.0
  0
ARC
  5
1059
330
131B
100
AcDbEntity
  8
profile aluminiowe
100
AcDbCircle
 10
1400.0
 20
378.0000000000004
 30
0.0
 40
0.5
100
AcDbArc
 50
89.99999999999999
 51
180.0
  0
ARC
  5
105A
330
131B
100
AcDbEntity
  8
profile aluminiowe
100
AcDbCircle
 10
1398.510994594705
 20
379.5016669593527
 30
0.0
 40
0.5
100
AcDbArc
 50
89.96829157503149
 51
179.9100345611651
  0
LINE
  5
105B
330
131B
100
AcDbEntity
  8
profile aluminiowe
100
AcDbLine
 10
1398.010995211081
 20
379.5024520555903
 30
0.0
 11
1397.999684728364
 21
372.299214903763
 31
0.0
  0
ARC
  5
105C
330
131B
100
AcDbEntity
  8
profile aluminiowe
100
AcDbCircle
 10
1397.49968534474
 20
372.2999999999995
 30
0.0
 40
0.5
100
AcDbArc
 50
270.0
 51
359.9100345611652
  0
LINE
  5
105D
330
131B
100
AcDbEntity
  8
profile aluminiowe
100
AcDbLine
 10
1400.0
 20
378.5000000000005
 30
0.0
 11
1402.4
 21
378.5000000000004
 31
0.0
  0
LINE
  5
105E
330
131B
100
AcDbEntity
  8
profile aluminiowe
100
AcDbLine
 10
1402.4
 20
378.5000000000004
 30
0.0
 11
1401.973783326085
 21
379.6710206873774
 31
0.0
  0
LINE
  5
105F
330
131B
100
AcDbEntity
  8
profile aluminiowe
100
AcDbLine
 10
1401.504213723886
 20
380.0000105391472
 30
0.0
 11
1398.511271302899
 21
380.0016668827853
 31
0.0
  0
ARC
  5
1060
330
131B
100
AcDbEntity
  8
profile aluminiowe
100
AcDbCircle
 10
1401.503937015692
 20
379.5000106157147
 30
0.0
 40
0.5
100
AcDbArc
 50
20.00000000000007
 51
89.96829157503149
  0
LINE
  5
1061
330
131B
100
AcDbEntity
  8
profile aluminiowe
100
AcDbLine
 10
1376.60008455699
 20
372.8000000000008
 30
0.0
 11
1375.0
 21
372.8000000000004
 31
0.0
  0
ARC
  5
1062
330
131B
100
AcDbEntity
  8
profile aluminiowe
100
AcDbCircle
 10
1376.60008455699
 20
373.8000000000004
 30
0.0
 40
1.0
100
AcDbArc
 50
270.0
 51
0.024249449880399
  0
LINE
  5
1063
330
131B
100
AcDbEntity
  8
profile aluminiowe
100
AcDbLine
 10
1377.595010475301
 20
385.7890793966945
 30
0.0
 11
1377.600084467427
 21
373.8004232327301
 31
0.0
  0
LINE
  5
1064
330
131B
100
AcDbEntity
  8
profile aluminiowe
100
AcDbLine
 10
1379.6
 20
387.2428675969395
 30
0.0
 11
1377.595010475301
 21
385.7890793966945
 31
0.0
  0
LINE
  5
1065
330
131B
100
AcDbEntity
  8
profile aluminiowe
100
AcDbLine
 10
1340.0
 20
370.0
 30
0.0
 11
1340.0
 21
379.5000000000001
 31
0.0
  0
ARC
  5
1066
330
131B
100
AcDbEntity
  8
profile aluminiowe
100
AcDbCircle
 10
1340.5
 20
379.5
 30
0.0
 40
0.5
100
AcDbArc
 50
90.0000000000006
 51
180.0
  0
ARC
  5
1067
330
131B
100
AcDbEntity
  8
profile aluminiowe
100
AcDbCircle
 10
1342.0
 20
372.3
 30
0.0
 40
0.5
100
AcDbArc
 50
180.0
 51
270.0000000000007
  0
LINE
  5
1068
330
131B
100
AcDbEntity
  8
profile aluminiowe
100
AcDbLine
 10
1342.0
 20
371.8000000000001
 30
0.0
 11
1350.0
 21
371.8000000000001
 31
0.0
  0
ARC
  5
1069
330
131B
100
AcDbEntity
  8
profile aluminiowe
100
AcDbCircle
 10
1350.0
 20
372.3000000000001
 30
0.0
 40
0.5
100
AcDbArc
 50
270.0000000000007
 51
0.0
  0
LINE
  5
106A
330
131B
100
AcDbEntity
  8
profile aluminiowe
100
AcDbLine
 10
1350.5
 20
372.3000000000001
 30
0.0
 11
1350.5
 21
378.0000000000002
 31
0.0
  0
ARC
  5
106B
330
131B
100
AcDbEntity
  8
profile aluminiowe
100
AcDbCircle
 10
1350.0
 20
378.0000000000002
 30
0.0
 40
0.5
100
AcDbArc
 50
0.0
 51
90.0000000000006
  0
ARC
  5
106C
330
131B
100
AcDbEntity
  8
profile aluminiowe
100
AcDbCircle
 10
1351.489005405295
 20
379.5016669593524
 30
0.0
 40
0.5
100
AcDbArc
 50
0.0899654388348539
 51
90.03170842496903
  0
LINE
  5
106D
330
131B
100
AcDbEntity
  8
profile aluminiowe
100
AcDbLine
 10
1351.989004788918
 20
379.5024520555901
 30
0.0
 11
1352.000315271636
 21
372.2992149037625
 31
0.0
  0
ARC
  5
106E
330
131B
100
AcDbEntity
  8
profile aluminiowe
100
AcDbCircle
 10
1352.500314655259
 20
372.3000000000002
 30
0.0
 40
0.5
100
AcDbArc
 50
180.0899654388348
 51
270.0000000000007
  0
LINE
  5
106F
330
131B
100
AcDbEntity
  8
profile aluminiowe
100
AcDbLine
 10
1350.0
 20
378.5000000000002
 30
0.0
 11
1347.6
 21
378.5000000000001
 31
0.0
  0
LINE
  5
1070
330
131B
100
AcDbEntity
  8
profile aluminiowe
100
AcDbLine
 10
1347.6
 20
378.5000000000001
 30
0.0
 11
1348.026216673915
 21
379.6710206873772
 31
0.0
  0
LINE
  5
1071
330
131B
100
AcDbEntity
  8
profile aluminiowe
100
AcDbLine
 10
1348.495786276114
 20
380.0000105391469
 30
0.0
 11
1351.488728697101
 21
380.001666882785
 31
0.0
  0
ARC
  5
1072
330
131B
100
AcDbEntity
  8
profile aluminiowe
100
AcDbCircle
 10
1348.496062984308
 20
379.5000106157144
 30
0.0
 40
0.5
100
AcDbArc
 50
90.03170842496903
 51
160.0000000000005
  0
LINE
  5
1073
330
131B
100
AcDbEntity
  8
profile aluminiowe
100
AcDbLine
 10
1373.399915443009
 20
372.8000000000003
 30
0.0
 11
1375.0
 21
372.8000000000004
 31
0.0
  0
ARC
  5
1074
330
131B
100
AcDbEntity
  8
profile aluminiowe
100
AcDbCircle
 10
1373.399915443009
 20
373.8000000000004
 30
0.0
 40
1.0
100
AcDbArc
 50
179.9757505501196
 51
270.0000000000007
  0
LINE
  5
1075
330
131B
100
AcDbEntity
  8
profile aluminiowe
100
AcDbLine
 10
1372.404989524699
 20
385.7890793966945
 30
0.0
 11
1372.399915532572
 21
373.80042323273
 31
0.0
  0
LINE
  5
1076
330
131B
100
AcDbEntity
  8
profile aluminiowe
100
AcDbLine
 10
1370.4
 20
387.2428675969394
 30
0.0
 11
1372.404989524699
 21
385.7890793966945
 31
0.0
  0
LINE
  5
1077
330
131B
100
AcDbEntity
  8
profile aluminiowe
100
AcDbLine
 10
1379.6
 20
372.8000000000009
 30
0.0
 11
1379.6
 21
387.2428675969395
 31
0.0
  0
ARC
  5
1078
330
131B
100
AcDbEntity
  8
profile aluminiowe
100
AcDbCircle
 10
1380.6
 20
372.7999999999997
 30
0.0
 40
1.0
100
AcDbArc
 50
180.0
 51
270.0
  0
LINE
  5
1079
330
131B
100
AcDbEntity
  8
profile aluminiowe
100
AcDbLine
 10
1370.4
 20
372.8000000000006
 30
0.0
 11
1370.4
 21
387.2428675969394
 31
0.0
  0
ARC
  5
107A
330
131B
100
AcDbEntity
  8
profile aluminiowe
100
AcDbCircle
 10
1369.4
 20
372.8000000000001
 30
0.0
 40
1.0
100
AcDbArc
 50
270.0000000000007
 51
0.0
  0
LINE
  5
107B
330
131B
100
AcDbEntity
  8
profile aluminiowe
100
AcDbLine
 10
1409.5
 20
380.0000000000004
 30
0.0
 11
1406.496059120504
 21
380.0000000000004
 31
0.0
  0
LINE
  5
107C
330
131B
100
AcDbEntity
  8
profile aluminiowe
100
AcDbLine
 10
1405.6
 20
378.5000000000004
 30
0.0
 11
1406.026212810111
 21
379.6710100716633
 31
0.0
  0
ARC
  5
107D
330
131B
100
AcDbEntity
  8
profile aluminiowe
100
AcDbCircle
 10
1406.496059120504
 20
379.5000000000004
 30
0.0
 40
0.5
100
AcDbArc
 50
89.99999999999999
 51
159.9999999999999
  0
LINE
  5
107E
330
131B
100
AcDbEntity
  8
profile aluminiowe
100
AcDbLine
 10
1408.5
 20
378.0000000000005
 30
0.0
 11
1408.5
 21
372.2999999999996
 31
0.0
  0
LINE
  5
107F
330
131B
100
AcDbEntity
  8
profile aluminiowe
100
AcDbLine
 10
1405.6
 20
378.5000000000004
 30
0.0
 11
1408.0
 21
378.5000000000005
 31
0.0
  0
ARC
  5
1080
330
131B
100
AcDbEntity
  8
profile aluminiowe
100
AcDbCircle
 10
1408.0
 20
378.0000000000005
 30
0.0
 40
0.5
100
AcDbArc
 50
0.0
 51
89.99999999999999
  0
LINE
  5
1081
330
131B
100
AcDbEntity
  8
profile aluminiowe
100
AcDbLine
 10
1344.4
 20
378.5000000000004
 30
0.0
 11
1343.973787189889
 21
379.6710100716629
 31
0.0
  0
LINE
  5
1082
330
131B
100
AcDbEntity
  8
profile aluminiowe
100
AcDbLine
 10
1340.5
 20
380.0
 30
0.0
 11
1343.503940879496
 21
380.0000000000001
 31
0.0
  0
ARC
  5
1083
330
131B
100
AcDbEntity
  8
profile aluminiowe
100
AcDbCircle
 10
1343.503940879496
 20
379.5000000000001
 30
0.0
 40
0.5
100
AcDbArc
 50
19.99999999999951
 51
89.99999999999999
  0
LINE
  5
1084
330
131B
100
AcDbEntity
  8
profile aluminiowe
100
AcDbLine
 10
1344.4
 20
378.5000000000004
 30
0.0
 11
1342.0
 21
378.5000000000004
 31
0.0
  0
LINE
  5
1085
330
131B
100
AcDbEntity
  8
profile aluminiowe
100
AcDbLine
 10
1341.5
 20
378.0000000000005
 30
0.0
 11
1341.5
 21
372.3
 31
0.0
  0
ARC
  5
1086
330
131B
100
AcDbEntity
  8
profile aluminiowe
100
AcDbCircle
 10
1342.0
 20
378.0000000000004
 30
0.0
 40
0.5
100
AcDbArc
 50
89.99999999999999
 51
180.0
  0
LINE
  5
1087
330
131B
100
AcDbEntity
  8
profile aluminiowe
100
AcDbLine
 10
1361.2
 20
371.5000000000004
 30
0.0
 11
1361.5
 21
371.8000000000004
 31
0.0
  0
LINE
  5
1088
330
131B
100
AcDbEntity
  8
profile aluminiowe
100
AcDbLine
 10
1360.9
 20
371.8000000000003
 30
0.0
 11
1361.2
 21
371.5000000000004
 31
0.0
  0
LINE
  5
1089
330
131B
100
AcDbEntity
  8
profile aluminiowe
100
AcDbLine
 10
1352.500314655259
 20
371.8000000000002
 30
0.0
 11
1360.9
 21
371.8000000000003
 31
0.0
  0
LINE
  5
108A
330
131B
100
AcDbEntity
  8
profile aluminiowe
100
AcDbLine
 10
1361.5
 20
371.8000000000003
 30
0.0
 11
1369.4
 21
371.8000000000004
 31
0.0
  0
LINE
  5
108B
330
131B
100
AcDbEntity
  8
profile aluminiowe
100
AcDbLine
 10
1397.49968534474
 20
371.8000000000005
 30
0.0
 11
1389.1
 21
371.8000000000004
 31
0.0
  0
LINE
  5
108C
330
131B
100
AcDbEntity
  8
profile aluminiowe
100
AcDbLine
 10
1389.1
 20
371.8000000000004
 30
0.0
 11
1388.8
 21
371.5000000000005
 31
0.0
  0
LINE
  5
108D
330
131B
100
AcDbEntity
  8
profile aluminiowe
100
AcDbLine
 10
1388.8
 20
371.5000000000005
 30
0.0
 11
1388.5
 21
371.8000000000003
 31
0.0
  0
LINE
  5
108E
330
131B
100
AcDbEntity
  8
profile aluminiowe
100
AcDbLine
 10
1388.5
 20
371.8000000000003
 30
0.0
 11
1380.6
 21
371.8000000000004
 31
0.0
  0
HATCH
  5
1151
330
131B
100
AcDbEntity
  8
profile alu kresk
100
AcDbHatch
 10
0.0
 20
0.0
 30
0.0
210
0.0
220
0.0
230
1.0
  2
ANSI31
 70
     0
 71
     0
 91
        1
 92
        0
 93
       62
 72
     1
 10
1375.0
 20
370.0000000000004
 11
1410.0
 21
370.0000000000005
 72
     1
 10
1410.0
 20
370.0000000000005
 11
1410.0
 21
379.5000000000005
 72
     2
 10
1409.5
 20
379.5000000000005
 40
0.5
 50
0.0
 51
90.0
 73
     1
 72
     1
 10
1409.5
 20
380.0000000000005
 11
1406.496059120504
 21
380.0000000000004
 72
     2
 10
1406.496059120504
 20
379.5000000000004
 40
0.5
 50
89.99999999999999
 51
159.9999999999999
 73
     1
 72
     1
 10
1406.026212810111
 20
379.6710100716633
 11
1405.6
 21
378.5000000000004
 72
     1
 10
1405.6
 20
378.5000000000004
 11
1408.0
 21
378.5000000000005
 72
     2
 10
1408.0
 20
378.0000000000005
 40
0.5
 50
270.0
 51
360.0
 73
     0
 72
     1
 10
1408.5
 20
378.0000000000005
 11
1408.5
 21
372.2999999999996
 72
     2
 10
1408.0
 20
372.3000000000003
 40
0.5
 50
0.0
 51
90.0
 73
     0
 72
     1
 10
1408.0
 20
371.8000000000003
 11
1400.0
 21
371.8000000000003
 72
     2
 10
1400.0
 20
372.3000000000004
 40
0.5
 50
90.0
 51
180.0
 73
     0
 72
     1
 10
1399.5
 20
372.3000000000004
 11
1399.5
 21
378.0000000000004
 72
     2
 10
1400.0
 20
378.0000000000004
 40
0.5
 50
180.0
 51
270.0
 73
     0
 72
     1
 10
1400.0
 20
378.5000000000004
 11
1402.4
 21
378.5000000000004
 72
     1
 10
1402.4
 20
378.5000000000004
 11
1401.973783326085
 21
379.6710206873774
 72
     2
 10
1401.503937015692
 20
379.5000106157147
 40
0.5
 50
20.00000000000007
 51
89.96829157503149
 73
     1
 72
     1
 10
1401.504213723886
 20
380.0000105391473
 11
1398.511271302899
 21
380.0016668827853
 72
     2
 10
1398.510994594705
 20
379.5016669593527
 40
0.5
 50
89.96829157503149
 51
179.9100345611651
 73
     1
 72
     1
 10
1398.010995211081
 20
379.5024520555904
 11
1397.999684728364
 21
372.299214903763
 72
     2
 10
1397.49968534474
 20
372.2999999999995
 40
0.5
 50
0.0899654388348526
 51
90.0
 73
     0
 72
     1
 10
1397.49968534474
 20
371.7999999999995
 11
1389.1
 21
371.8000000000004
 72
     1
 10
1389.1
 20
371.8000000000004
 11
1388.8
 21
371.5000000000005
 72
     1
 10
1388.8
 20
371.5000000000005
 11
1388.5
 21
371.8000000000003
 72
     1
 10
1388.5
 20
371.8000000000003
 11
1380.6
 21
371.8000000000004
 72
     2
 10
1380.6
 20
372.7999999999997
 40
1.0
 50
90.0
 51
180.0
 73
     0
 72
     1
 10
1379.6
 20
372.7999999999997
 11
1379.6
 21
387.2428675969395
 72
     1
 10
1379.6
 20
387.2428675969395
 11
1377.595010475301
 21
385.7890793966945
 72
     1
 10
1377.595010475301
 20
385.7890793966945
 11
1377.600084467427
 21
373.8004232327301
 72
     2
 10
1376.60008455699
 20
373.8000000000004
 40
1.0
 50
359.9757505501196
 51
450.0
 73
     0
 72
     1
 10
1376.60008455699
 20
372.8000000000004
 11
1375.0
 21
372.8000000000004
 72
     1
 10
1375.0
 20
372.8000000000004
 11
1373.399915443009
 21
372.8000000000003
 72
     2
 10
1373.399915443009
 20
373.8000000000004
 40
1.0
 50
89.99999999999939
 51
180.0242494498804
 73
     0
 72
     1
 10
1372.399915532572
 20
373.8004232327299
 11
1372.404989524699
 21
385.7890793966945
 72
     1
 10
1372.404989524699
 20
385.7890793966945
 11
1370.4
 21
387.2428675969394
 72
     1
 10
1370.4
 20
387.2428675969394
 11
1370.4
 21
372.8000000000006
 72
     2
 10
1369.4
 20
372.8000000000001
 40
1.0
 50
0.0
 51
89.99999999999919
 73
     0
 72
     1
 10
1369.4
 20
371.8000000000001
 11
1361.5
 21
371.8000000000003
 72
     1
 10
1361.5
 20
371.8000000000003
 11
1361.2
 21
371.5000000000004
 72
     1
 10
1361.2
 20
371.5000000000004
 11
1360.9
 21
371.8000000000003
 72
     1
 10
1360.9
 20
371.8000000000003
 11
1352.500314655259
 21
371.8000000000002
 72
     2
 10
1352.500314655259
 20
372.3000000000002
 40
0.5
 50
89.99999999999939
 51
179.9100345611651
 73
     0
 72
     1
 10
1352.000315271636
 20
372.2992149037624
 11
1351.989004788918
 21
379.5024520555901
 72
     2
 10
1351.489005405295
 20
379.5016669593524
 40
0.5
 50
0.0899654388348539
 51
90.03170842496903
 73
     1
 72
     1
 10
1351.488728697101
 20
380.001666882785
 11
1348.495786276114
 21
380.0000105391469
 72
     2
 10
1348.496062984308
 20
379.5000106157144
 40
0.5
 50
90.03170842496903
 51
160.0000000000005
 73
     1
 72
     1
 10
1348.026216673915
 20
379.6710206873772
 11
1347.6
 21
378.5000000000001
 72
     1
 10
1347.6
 20
378.5000000000001
 11
1350.0
 21
378.5000000000002
 72
     2
 10
1350.0
 20
378.0000000000002
 40
0.5
 50
269.9999999999994
 51
360.0
 73
     0
 72
     1
 10
1350.5
 20
378.0000000000002
 11
1350.5
 21
372.3000000000001
 72
     2
 10
1350.0
 20
372.3000000000001
 40
0.5
 50
0.0
 51
89.99999999999939
 73
     0
 72
     1
 10
1350.0
 20
371.8000000000001
 11
1342.0
 21
371.8000000000001
 72
     2
 10
1342.0
 20
372.3
 40
0.5
 50
89.99999999999939
 51
180.0
 73
     0
 72
     1
 10
1341.5
 20
372.3
 11
1341.5
 21
378.0000000000005
 72
     2
 10
1342.0
 20
378.0000000000004
 40
0.5
 50
180.0
 51
270.0
 73
     0
 72
     1
 10
1342.0
 20
378.5000000000004
 11
1344.4
 21
378.5000000000004
 72
     1
 10
1344.4
 20
378.5000000000004
 11
1343.973787189889
 21
379.6710100716629
 72
     2
 10
1343.503940879496
 20
379.5000000000001
 40
0.5
 50
19.99999999999951
 51
89.99999999999999
 73
     1
 72
     1
 10
1343.503940879496
 20
380.0000000000001
 11
1340.5
 21
380.0
 72
     2
 10
1340.5
 20
379.5
 40
0.5
 50
90.0000000000006
 51
180.0
 73
     1
 72
     1
 10
1340.0
 20
379.5
 11
1340.0
 21
370.0
 72
     1
 10
1340.0
 20
370.0
 11
1375.0
 21
370.0000000000004
 97
        0
 75
     0
 76
     1
 52
180.0
 41
0.445421594448219
 77
     0
 78
     1
 53
225.0
 43
0.0
 44
0.0
 45
1.0
 46
-1.0
 79
     0
 98
        0
1001
ACAD
1010
0.0
1020
0.0
1030
0.0
  0
LINE
  5
1090
330
131B
100
AcDbEntity
  8
profile aluminiowe
100
AcDbLine
 10
1375.0
 20
370.0000000000004
 30
0.0
 11
1410.0
 21
370.0000000000005
 31
0.0
  0
LINE
  5
1091
330
131B
100
AcDbEntity
  8
profile aluminiowe
100
AcDbLine
 10
1375.0
 20
370.0000000000004
 30
0.0
 11
1340.0
 21
370.0
 31
0.0
  0
LINE
  5
1094
330
131B
100
AcDbEntity
  8
osie
100
AcDbLine
 10
1500.0
 20
390.0
 30
0.0
 11
1500.0
 21
440.0
 31
0.0
  0
LINE
  5
1095
330
131B
100
AcDbEntity
  8
osie
100
AcDbLine
 10
1269.005120214981
 20
411.0978699518716
 30
0.0
 11
1269.005120214981
 21
361.0978699518716
 31
0.0
  0
LINE
  5
1096
330
131B
100
AcDbEntity
  8
swietlik poliweglan
100
AcDbLine
 10
1498.0
 20
408.9999999999999
 30
0.0
 11
1498.0
 21
425.0
 31
0.0
  0
LINE
  5
1097
330
131B
100
AcDbEntity
  8
swietlik poliweglan
100
AcDbLine
 10
1273.005120214981
 20
380.0978699518718
 30
0.0
 11
1273.005120214981
 21
396.0978699518718
 31
0.0
  0
LINE
  5
1098
330
131B
100
AcDbEntity
  8
osie
100
AcDbLine
 10
1030.0
 20
420.0
 30
0.0
 11
1030.0
 21
370.0
 31
0.0
  0
LINE
  5
1099
330
131B
100
AcDbEntity
  8
osie
100
AcDbLine
 10
870.0
 20
280.0
 30
0.0
 11
920.0
 21
280.0
 31
0.0
  0
MTEXT
  5
114E
330
131B
100
AcDbEntity
  8
wymiary
100
AcDbMText
 10
1250.0
 20
530.0
 30
0.0
 40
8.0
 41
100.0
 46
0.0
 71
     7
 72
     1
  1
Polaczenie plyt poliweglanowych pokrycia swietlika
  7
textstyle28
 73
     1
 44
1.0
  0
MTEXT
  5
1155
330
131B
100
AcDbEntity
  8
wymiary
100
AcDbMText
 10
1326.083333333333
 20
445.6800000000001
 30
0.0
 40
6.0
 41
100.0
 46
0.0
 71
     7
 72
     1
  1
plyta poliweglanowa\Ppokrycie swietlika
  7
textstyle29
 73
     1
 44
1.0
  0
MTEXT
  5
1157
330
131B
100
AcDbEntity
  8
ramka
100
AcDbMText
 10
1266.180326160307
 20
-583.5043842770089
 30
0.0
 40
10.0
 41
200.0
 46
0.0
 71
     7
 72
     1
  1

  7
textstyle30
 73
     1
 44
1.0
  0
LINE
  5
115A
330
131B
100
AcDbEntity
  8
ramka
100
AcDbLine
 10
920.0
 20
-580.0
 30
0.0
 11
1600.0
 21
-580.0
 31
0.0
  0
LINE
  5
115B
330
131B
100
AcDbEntity
  8
ramka
100
AcDbLine
 10
920.0
 20
-540.0
 30
0.0
 11
1600.0
 21
-540.0
 31
0.0
  0
LINE
  5
115C
330
131B
100
AcDbEntity
  8
ramka
100
AcDbLine
 10
1220.0
 20
-660.0
 30
0.0
 11
1220.0
 21
-540.0
 31
0.0
  0
LINE
  5
115D
330
131B
100
AcDbEntity
  8
ramka
100
AcDbLine
 10
920.0
 20
-660.0
 30
0.0
 11
920.0
 21
-540.0
 31
0.0
  0
LINE
  5
1160
330
131B
100
AcDbEntity
  8
ramka
100
AcDbLine
 10
1468.0
 20
-580.0
 30
0.0
 11
1468.0
 21
-540.0
 31
0.0
  0
LINE
  5
1161
330
131B
100
AcDbEntity
  8
ramka
100
AcDbLine
 10
1351.180326160307
 20
-540.0
 30
0.0
 11
1351.180326160307
 21
-580.0
 31
0.0
  0
MTEXT
  5
1164
330
131B
100
AcDbEntity
  8
ramka
100
AcDbMText
 10
929.9999999999999
 20
-640.0
 30
0.0
 40
8.0
 41
400.0
 46
0.0
 71
     7
 72
     1
  1
ESKADE\~-\~SYSTEM Jan Duerschlag\Pul. Boguszowicka 69 A, 44-203 Rybnik\P\Pwww.eskade.pl\Ptel/fax 32 42 21 521
  7
textstyle31
 73
     1
 44
1.0
  0
MTEXT
  5
1166
330
131B
100
AcDbEntity
  8
ramka
100
AcDbMText
 10
1248.0
 20
-620.0000000000009
 30
0.0
 40
8.0
 41
400.0
 46
0.0
 71
     7
 72
     1
  1

  7
textstyle32
 73
     1
 44
1.0
  0
MTEXT
  5
1167
330
131B
100
AcDbEntity
  8
ramka
100
AcDbMText
 10
1240.0
 20
-620.0000000000003
 30
0.0
 40
10.0
 41
0.0
 46
0.0
 71
     7
 72
     1
  1
Swietlik dachowy lukowy ESKADE-SYSTEM\P- szczegóły konstrukcyjne
  7
textstyle33
 73
     1
 44
1.0
  0
LINE
  5
1168
330
131B
100
AcDbEntity
  8
ramka
100
AcDbLine
 10
920.0
 20
-660.0
 30
0.0
 11
1600.0
 21
-660.0
 31
0.0
  0
LINE
  5
1169
330
131B
100
AcDbEntity
  8
ramka
100
AcDbLine
 10
1600.0
 20
-660.0
 30
0.0
 11
1600.0
 21
-540.0
 31
0.0
  0
MTEXT
  5
116A
330
131B
100
AcDbEntity
  8
ramka
100
AcDbMText
 10
1240.0
 20
-650.0000000000006
 30
0.0
 40
6.0
 41
0.0
 46
0.0
 71
     7
 72
     1
  1
Kopiowanie i publikowanie części lub całości\Pdozwolone wyłącznie za pisemną zgodą firmy ESKADE-SYSTEM
  7
textstyle34
 73
     1
 44
1.0
  0
MTEXT
  5
116B
330
131B
100
AcDbEntity
  8
wymiary
100
AcDbMText
 10
1449.044131778943
 20
-247.3750000000009
 30
0.0
 40
5.0
 41
50.0
 46
0.0
 71
     7
 72
     1
  1
uszczelka\~A
  7
textstyle35
 73
     1
 44
1.0
  0
LINE
  5
116C
330
131B
100
AcDbEntity
  8
podstawa swietlika
100
AcDbLine
 10
1398.919531091167
 20
-377.4485453088731
 30
0.0
 11
1398.919531091167
 21
-277.4485453088732
 31
0.0
  0
MTEXT
  5
116D
330
131B
100
AcDbEntity
  8
wymiary
100
AcDbMText
 10
1418.691923649292
 20
-346.2666666666719
 30
0.0
 40
6.0
 41
100.0
 46
0.0
 71
     7
 72
     1
  1
podstawa
  7
textstyle36
 73
     1
 44
1.0
  0
MTEXT
  5
116E
330
131B
100
AcDbEntity
  8
wymiary
100
AcDbMText
 10
1279.191923649293
 20
-140.0000000000004
 30
0.0
 40
8.0
 41
100.0
 46
0.0
 71
     7
 72
     1
  1
Mocowanie scian bocznych swietlika do podstawy
  7
textstyle37
 73
     1
 44
1.0
  0
LINE
  5
116F
330
131B
100
AcDbEntity
  8
podstawa swietlika
100
AcDbLine
 10
1398.919531091167
 20
-277.4485453088732
 30
0.0
 11
1338.919531091167
 21
-277.4485453088731
 31
0.0
  0
LINE
  5
1170
330
131B
100
AcDbEntity
  8
podstawa swietlika
100
AcDbLine
 10
1338.919531091167
 20
-277.4485453088731
 30
0.0
 11
1338.919531091167
 21
-377.448484885513
 31
0.0
  0
HATCH
  5
1171
330
131B
100
AcDbEntity
  8
podstawa swietlika
100
AcDbHatch
 10
0.0
 20
0.0
 30
0.0
210
0.0
220
0.0
230
1.0
  2
ANSI31
 70
     0
 71
     0
 91
        1
 92
        0
 93
        4
 72
     1
 10
1398.919531091167
 20
-277.4485453088732
 11
1338.919531091167
 21
-277.4485453088731
 72
     1
 10
1338.919531091167
 20
-277.4485453088731
 11
1338.919531091167
 21
-377.448484605725
 72
     1
 10
1338.919531091167
 20
-377.448484605725
 11
1398.919531091167
 21
-377.4485453088731
 72
     1
 10
1398.919531091167
 20
-377.4485453088731
 11
1398.919531091167
 21
-277.4485453088732
 97
        0
 75
     0
 76
     1
 52
270.0
 41
2.227107972241095
 77
     0
 78
     1
 53
315.0
 43
0.0
 44
0.0
 45
5.000000000000002
 46
4.999999999999999
 79
     0
 98
        0
1001
ACAD
1010
0.0
1020
0.0
1030
0.0
  0
MTEXT
  5
1172
330
131B
100
AcDbEntity
  8
wymiary
100
AcDbMText
 10
1471.191923649293
 20
-327.9999999999999
 30
0.0
 40
5.0
 41
50.0
 46
0.0
 71
     7
 72
     1
  1
profil E-2126\Plub E-1035
  7
textstyle38
 73
     1
 44
1.0
  0
LEADER
  5
1173
330
131B
100
AcDbEntity
  8
wymiary
100
AcDbLeader
  3
QCADDimStyle
 76
     3
 10
1456.949234436842
 20
-298.1426102503073
 30
0.0
 10
1469.191923649293
 20
-330.0
 30
0.0
 10
1523.191923649293
 20
-330.0
 30
0.0
  0
LEADER
  5
1174
330
131B
100
AcDbEntity
  8
wymiary
100
AcDbLeader
  3
QCADDimStyle
 76
     3
 10
1403.191923649293
 20
-245.0
 30
0.0
 10
1429.191923649293
 20
-220.0
 30
0.0
 10
1509.191923649293
 20
-220.0
 30
0.0
  0
LEADER
  5
1175
330
131B
100
AcDbEntity
  8
wymiary
100
AcDbLeader
  3
QCADDimStyle
 76
     3
 10
1449.191923649293
 20
-270.0
 30
0.0
 10
1449.191923649293
 20
-250.0
 30
0.0
 10
1493.191923649293
 20
-250.0
 30
0.0
  0
LEADER
  5
1176
330
131B
100
AcDbEntity
  8
wymiary
100
AcDbLeader
  3
QCADDimStyle
 76
     3
 10
1391.678863777333
 20
-324.2218331397279
 30
0.0
 10
1419.191923649293
 20
-350.0
 30
0.0
 10
1465.191923649293
 20
-349.9999999999999
 30
0.0
  0
CIRCLE
  5
1177
330
131B
100
AcDbEntity
  8
osie
100
AcDbCircle
 10
1400.0
 20
-250.0
 30
0.0
 40
190.8080763507072
  0
LINE
  5
1178
330
131B
100
AcDbEntity
  8
osie
100
AcDbLine
 10
1359.191923649293
 20
-200.0
 30
0.0
 11
1329.191923649293
 21
-250.0
 31
0.0
  0
LINE
  5
1179
330
131B
100
AcDbEntity
  8
sruby
100
AcDbLine
 10
1380.991923649293
 20
-274.6830027922135
 30
0.0
 11
1380.991923649293
 21
-271.7169972077868
 31
0.0
  0
LINE
  5
117A
330
131B
100
AcDbEntity
  8
sruby
100
AcDbLine
 10
1381.741923649293
 20
-270.7169972077864
 30
0.0
 11
1389.241923649293
 21
-270.7169972077868
 31
0.0
  0
LINE
  5
117B
330
131B
100
AcDbEntity
  8
sruby
100
AcDbLine
 10
1389.991923649293
 20
-271.7169972077874
 30
0.0
 11
1389.991923649293
 21
-274.6830027922132
 31
0.0
  0
LINE
  5
117C
330
131B
100
AcDbEntity
  8
sruby
100
AcDbLine
 10
1382.741923649293
 20
-274.6830027922124
 30
0.0
 11
1382.741923649293
 21
-271.6830027922127
 31
0.0
  0
LINE
  5
117D
330
131B
100
AcDbEntity
  8
sruby
100
AcDbLine
 10
1387.491923649293
 20
-274.6830027922124
 30
0.0
 11
1387.491923649294
 21
-271.6830027922136
 31
0.0
  0
LINE
  5
117E
330
131B
100
AcDbEntity
  8
sruby
100
AcDbLine
 10
1380.991923649293
 20
-271.7169972077868
 30
0.0
 11
1389.991923649293
 21
-271.7169972077874
 31
0.0
  0
LINE
  5
117F
330
131B
100
AcDbEntity
  8
sruby
100
AcDbLine
 10
1387.491923649294
 20
-271.6830027922136
 30
0.0
 11
1388.491923649293
 21
-270.7169972077879
 31
0.0
  0
LINE
  5
1180
330
131B
100
AcDbEntity
  8
sruby
100
AcDbLine
 10
1387.491923649294
 20
-271.6830027922136
 30
0.0
 11
1386.491923649293
 21
-270.7169972077884
 31
0.0
  0
LINE
  5
1181
330
131B
100
AcDbEntity
  8
sruby
100
AcDbLine
 10
1389.991923649293
 20
-271.7169972077874
 30
0.0
 11
1389.241923649293
 21
-270.7169972077868
 31
0.0
  0
LINE
  5
1182
330
131B
100
AcDbEntity
  8
sruby
100
AcDbLine
 10
1382.741923649293
 20
-271.6830027922127
 30
0.0
 11
1383.741923649293
 21
-270.7169972077866
 31
0.0
  0
LINE
  5
1183
330
131B
100
AcDbEntity
  8
sruby
100
AcDbLine
 10
1382.741923649293
 20
-271.6830027922127
 30
0.0
 11
1381.741923649293
 21
-270.7169972077864
 31
0.0
  0
LINE
  5
1184
330
131B
100
AcDbEntity
  8
sruby
100
AcDbLine
 10
1380.991923649293
 20
-271.7169972077868
 30
0.0
 11
1381.741923649293
 21
-270.7169972077864
 31
0.0
  0
LINE
  5
1185
330
131B
100
AcDbEntity
  8
profile aluminiowe
100
AcDbLine
 10
1363.193847437939
 20
-275.5000000000003
 30
0.0
 11
1363.19384743794
 21
-277.0000000000002
 31
0.0
  0
LINE
  5
1186
330
131B
100
AcDbEntity
  8
profile aluminiowe
100
AcDbLine
 10
1363.19384743794
 20
-277.0000000000002
 30
0.0
 11
1399.191923649293
 21
-277.0
 31
0.0
  0
LINE
  5
1187
330
131B
100
AcDbEntity
  8
profile aluminiowe
100
AcDbLine
 10
1400.193847437939
 20
-275.5000000000002
 30
0.0
 11
1363.193847437939
 21
-275.5000000000003
 31
0.0
  0
LINE
  5
1188
330
131B
100
AcDbEntity
  8
profile aluminiowe
100
AcDbLine
 10
1433.102812781747
 20
-294.4999999999995
 30
0.0
 11
1400.193847437939
 21
-275.5000000000002
 31
0.0
  0
LINE
  5
1189
330
131B
100
AcDbEntity
  8
profile aluminiowe
100
AcDbLine
 10
1433.588453427803
 20
-296.8588457268123
 30
0.0
 11
1399.191923649293
 21
-277.0
 31
0.0
  0
LINE
  5
118A
330
131B
100
AcDbEntity
  8
profile aluminiowe
100
AcDbLine
 10
1438.238453427803
 20
-288.8048094716168
 30
0.0
 11
1433.588453427803
 21
-296.8588457268123
 31
0.0
  0
LINE
  5
118B
330
131B
100
AcDbEntity
  8
profile aluminiowe
100
AcDbLine
 10
1438.238453427803
 20
-288.8048094716168
 30
0.0
 11
1439.604478831588
 21
-288.4387840678326
 31
0.0
  0
LINE
  5
118C
330
131B
100
AcDbEntity
  8
profile aluminiowe
100
AcDbLine
 10
1438.102812781747
 20
-285.8397459621553
 30
0.0
 11
1433.102812781747
 21
-294.4999999999995
 31
0.0
  0
LINE
  5
118D
330
131B
100
AcDbEntity
  8
profile aluminiowe
100
AcDbLine
 10
1466.854856187392
 20
-302.4397459621557
 30
0.0
 11
1438.102812781747
 21
-285.8397459621553
 31
0.0
  0
LINE
  5
118E
330
131B
100
AcDbEntity
  8
profile aluminiowe
100
AcDbLine
 10
1468.220881591176
 20
-302.0737205583713
 30
0.0
 11
1466.854856187392
 21
-302.4397459621557
 31
0.0
  0
LINE
  5
118F
330
131B
100
AcDbEntity
  8
profile aluminiowe
100
AcDbLine
 10
1468.183317156474
 20
-304.9387840678326
 30
0.0
 11
1439.604478831588
 21
-288.4387840678326
 31
0.0
  0
LINE
  5
1190
330
131B
100
AcDbEntity
  8
profile aluminiowe
100
AcDbLine
 10
1476.704856187392
 20
-285.3790455076022
 30
0.0
 11
1477.070881591176
 21
-286.7450709113867
 31
0.0
  0
LINE
  5
1191
330
131B
100
AcDbEntity
  8
profile aluminiowe
100
AcDbLine
 10
1452.196337260292
 20
-271.2290455076022
 30
0.0
 11
1476.704856187392
 21
-285.3790455076022
 31
0.0
  0
LINE
  5
1192
330
131B
100
AcDbEntity
  8
profile aluminiowe
100
AcDbLine
 10
1452.635567744833
 20
-272.8682759921438
 30
0.0
 11
1452.196337260292
 21
-271.2290455076022
 31
0.0
  0
LINE
  5
1193
330
131B
100
AcDbEntity
  8
profile aluminiowe
100
AcDbLine
 10
1450.903516937264
 20
-271.8682759921438
 30
0.0
 11
1452.635567744833
 21
-272.8682759921438
 31
0.0
  0
ARC
  5
1194
330
131B
100
AcDbEntity
  8
profile aluminiowe
100
AcDbCircle
 10
1451.153516937264
 20
-271.4352632902516
 30
0.0
 40
0.5
100
AcDbArc
 50
150.0
 51
240.0
  0
LINE
  5
1195
330
131B
100
AcDbEntity
  8
profile aluminiowe
100
AcDbLine
 10
1451.770504235373
 20
-269.3666099423043
 30
0.0
 11
1479.483317156474
 21
-285.3666099423042
 31
0.0
  0
LINE
  5
1196
330
131B
100
AcDbEntity
  8
profile aluminiowe
100
AcDbLine
 10
1451.770504235373
 20
-269.3666099423043
 30
0.0
 11
1450.720504235372
 21
-271.1852632902517
 31
0.0
  0
LINE
  5
1197
330
131B
100
AcDbEntity
  8
profile aluminiowe
100
AcDbLine
 10
1468.183317156474
 20
-304.9387840678326
 30
0.0
 11
1479.483317156474
 21
-285.3666099423042
 31
0.0
  0
LINE
  5
1198
330
131B
100
AcDbEntity
  8
profile aluminiowe
100
AcDbLine
 10
1477.070881591176
 20
-286.7450709113868
 30
0.0
 11
1468.220881591176
 21
-302.0737205583713
 31
0.0
  0
HATCH
  5
1199
330
131B
100
AcDbEntity
  8
profile alu kresk
100
AcDbHatch
 10
0.0
 20
0.0
 30
0.0
210
0.0
220
0.0
230
1.0
  2
ANSI31
 70
     0
 71
     0
 91
        1
 92
        0
 93
       20
 72
     1
 10
1363.193847437939
 20
-275.5000000000003
 11
1363.19384743794
 21
-277.0000000000002
 72
     1
 10
1363.19384743794
 20
-277.0000000000002
 11
1399.191923649293
 21
-277.0
 72
     1
 10
1399.191923649293
 20
-277.0
 11
1433.588453427803
 21
-296.8588457268123
 72
     1
 10
1433.588453427803
 20
-296.8588457268123
 11
1438.238453427803
 21
-288.8048094716168
 72
     1
 10
1438.238453427803
 20
-288.8048094716168
 11
1439.604478831588
 21
-288.4387840678326
 72
     1
 10
1439.604478831588
 20
-288.4387840678326
 11
1468.183317156474
 21
-304.9387840678326
 72
     1
 10
1468.183317156474
 20
-304.9387840678326
 11
1479.483317156474
 21
-285.3666099423042
 72
     1
 10
1479.483317156474
 20
-285.3666099423042
 11
1451.770504235373
 21
-269.3666099423043
 72
     1
 10
1451.770504235373
 20
-269.3666099423043
 11
1450.720504235372
 21
-271.1852632902517
 72
     2
 10
1451.153516937264
 20
-271.4352632902516
 40
0.5
 50
150.0
 51
240.0
 73
     1
 72
     1
 10
1450.903516937264
 20
-271.8682759921438
 11
1452.635567744833
 21
-272.8682759921438
 72
     1
 10
1452.635567744833
 20
-272.8682759921438
 11
1452.196337260292
 21
-271.2290455076022
 72
     1
 10
1452.196337260292
 20
-271.2290455076022
 11
1476.704856187392
 21
-285.3790455076022
 72
     1
 10
1476.704856187392
 20
-285.3790455076022
 11
1477.070881591176
 21
-286.7450709113867
 72
     1
 10
1477.070881591176
 20
-286.7450709113867
 11
1468.220881591176
 21
-302.0737205583713
 72
     1
 10
1468.220881591176
 20
-302.0737205583713
 11
1466.854856187392
 21
-302.4397459621557
 72
     1
 10
1466.854856187392
 20
-302.4397459621557
 11
1438.102812781747
 21
-285.8397459621553
 72
     1
 10
1438.102812781747
 20
-285.8397459621553
 11
1433.102812781747
 21
-294.4999999999995
 72
     1
 10
1433.102812781747
 20
-294.4999999999995
 11
1400.193847437939
 21
-275.5000000000002
 72
     1
 10
1400.193847437939
 20
-275.5000000000002
 11
1363.193847437939
 21
-275.5000000000003
 97
        0
 75
     0
 76
     1
 52
60.00000000000001
 41
0.445421594448219
 77
     0
 78
     1
 53
105.0
 43
0.0
 44
0.0
 45
-1.366025403784439
 46
-0.3660254037844388
 79
     0
 98
        0
1001
ACAD
1010
0.0
1020
0.0
1030
0.0
  0
LINE
  5
119A
330
131B
100
AcDbEntity
  8
swietlik poliweglan
100
AcDbLine
 10
1465.083121826778
 20
-300.6657239522302
 30
0.0
 11
1473.083121826778
 21
-286.8093174916792
 31
0.0
  0
LINE
  5
119B
330
131B
100
AcDbEntity
  8
swietlik poliweglan
100
AcDbLine
 10
1342.135694378677
 20
-229.6819936188969
 30
0.0
 11
1465.083121826778
 21
-300.6657239522302
 31
0.0
  0
LINE
  5
119C
330
131B
100
AcDbEntity
  8
swietlik poliweglan
100
AcDbLine
 10
1466.542925338999
 20
-298.1372700999954
 30
0.0
 11
1343.595497890897
 21
-227.153539766663
 31
0.0
  0
LINE
  5
119D
330
131B
100
AcDbEntity
  8
swietlik poliweglan
100
AcDbLine
 10
1468.042925338999
 20
-295.5391938886428
 30
0.0
 11
1345.095497890898
 21
-224.5554635553091
 31
0.0
  0
LINE
  5
119E
330
131B
100
AcDbEntity
  8
swietlik poliweglan
100
AcDbLine
 10
1470.042925338999
 20
-292.0750922735042
 30
0.0
 11
1347.095497890898
 21
-221.091361940172
 31
0.0
  0
LINE
  5
119F
330
131B
100
AcDbEntity
  8
swietlik poliweglan
100
AcDbLine
 10
1471.583121826778
 20
-289.4073937030324
 30
0.0
 11
1348.635694378677
 21
-218.4236633696988
 31
0.0
  0
LINE
  5
11A0
330
131B
100
AcDbEntity
  8
swietlik poliweglan
100
AcDbLine
 10
1473.083121826778
 20
-286.8093174916792
 30
0.0
 11
1350.135694378677
 21
-215.8255871583455
 31
0.0
  0
HATCH
  5
11A1
330
131B
100
AcDbEntity
  8
uszczelka EPDM
100
AcDbHatch
 10
0.0
 20
0.0
 30
0.0
210
0.0
220
0.0
230
1.0
  2
SOLID
 70
     1
 71
     0
 91
        1
 92
        0
 93
        7
 72
     1
 10
1452.791923649293
 20
-271.9
 11
1452.691923649293
 21
-273.1
 72
     1
 10
1452.691923649293
 20
-273.1
 11
1450.291923649293
 21
-271.7
 72
     1
 10
1450.291923649293
 20
-271.7
 11
1450.991923649293
 21
-270.5
 72
     1
 10
1450.991923649293
 20
-270.5
 11
1446.191923649293
 21
-271.2
 72
     1
 10
1446.191923649293
 20
-271.2
 11
1455.030547291281
 21
-276.2432642226045
 72
     1
 10
1455.030547291281
 20
-276.2432642226045
 11
1453.391923649293
 21
-272.2
 72
     1
 10
1453.391923649293
 20
-272.2
 11
1452.791923649293
 21
-271.9
 97
        0
 75
     0
 76
     1
 98
        0
  0
MTEXT
  5
11A2
330
131B
100
AcDbEntity
  8
wymiary
100
AcDbMText
 10
1429.191923649293
 20
-218.0000000000011
 30
0.0
 40
6.0
 41
100.0
 46
0.0
 71
     7
 72
     1
  1
plyta poliweglanowa\Ppokrycie swietlika
  7
textstyle39
 73
     1
 44
1.0
  0
LINE
  5
11A3
330
131B
100
AcDbEntity
  8
profile aluminiowe
100
AcDbLine
 10
970.2582627756533
 20
-246.5526757508649
 30
0.0
 11
971.5573008813299
 21
-247.3026757508649
 31
0.0
  0
LINE
  5
11A4
330
131B
100
AcDbEntity
  8
profile aluminiowe
100
AcDbLine
 10
971.5573008813299
 20
-247.3026757508649
 30
0.0
 11
953.5582627756532
 21
-278.477924237265
 31
0.0
  0
LINE
  5
11A5
330
131B
100
AcDbEntity
  8
profile aluminiowe
100
AcDbLine
 10
951.7582627756533
 20
-278.5956156908891
 30
0.0
 11
970.2582627756533
 21
-246.5526757508649
 31
0.0
  0
LINE
  5
11A6
330
131B
100
AcDbEntity
  8
profile aluminiowe
100
AcDbLine
 10
951.7582627756533
 20
-316.5956156908891
 30
0.0
 11
951.7582627756533
 21
-278.5956156908891
 31
0.0
  0
LINE
  5
11A7
330
131B
100
AcDbEntity
  8
profile aluminiowe
100
AcDbLine
 10
953.5582627756534
 20
-318.1956156908891
 30
0.0
 11
953.5582627756532
 21
-278.477924237265
 31
0.0
  0
LINE
  5
11A8
330
131B
100
AcDbEntity
  8
profile aluminiowe
100
AcDbLine
 10
944.2582627756533
 20
-318.1956156908891
 30
0.0
 11
953.5582627756534
 21
-318.1956156908891
 31
0.0
  0
LINE
  5
11A9
330
131B
100
AcDbEntity
  8
profile aluminiowe
100
AcDbLine
 10
944.2582627756533
 20
-318.1956156908891
 30
0.0
 11
943.2582627756533
 21
-319.1956156908891
 31
0.0
  0
LINE
  5
11AA
330
131B
100
AcDbEntity
  8
profile aluminiowe
100
AcDbLine
 10
941.7582627756533
 20
-316.5956156908891
 30
0.0
 11
951.7582627756533
 21
-316.5956156908891
 31
0.0
  0
LINE
  5
11AB
330
131B
100
AcDbEntity
  8
profile aluminiowe
100
AcDbLine
 10
941.7582627756532
 20
-349.7956156908891
 30
0.0
 11
941.7582627756533
 21
-316.5956156908891
 31
0.0
  0
LINE
  5
11AC
330
131B
100
AcDbEntity
  8
profile aluminiowe
100
AcDbLine
 10
940.7582627756532
 20
-350.7956156908891
 30
0.0
 11
941.7582627756532
 21
-349.7956156908891
 31
0.0
  0
LINE
  5
11AD
330
131B
100
AcDbEntity
  8
profile aluminiowe
100
AcDbLine
 10
943.2582627756533
 20
-352.1956156908891
 30
0.0
 11
943.2582627756533
 21
-319.1956156908891
 31
0.0
  0
LINE
  5
11AE
330
131B
100
AcDbEntity
  8
profile aluminiowe
100
AcDbLine
 10
922.0582627756532
 20
-349.7956156908891
 30
0.0
 11
923.0582627756532
 21
-350.7956156908891
 31
0.0
  0
LINE
  5
11AF
330
131B
100
AcDbEntity
  8
profile aluminiowe
100
AcDbLine
 10
922.0582627756532
 20
-321.4956156908892
 30
0.0
 11
922.0582627756532
 21
-349.7956156908891
 31
0.0
  0
LINE
  5
11B0
330
131B
100
AcDbEntity
  8
profile aluminiowe
100
AcDbLine
 10
923.2582627756533
 20
-322.6956156908891
 30
0.0
 11
922.0582627756532
 21
-321.4956156908892
 31
0.0
  0
LINE
  5
11B1
330
131B
100
AcDbEntity
  8
profile aluminiowe
100
AcDbLine
 10
923.2582627756533
 20
-320.6956156908891
 30
0.0
 11
923.2582627756533
 21
-322.6956156908891
 31
0.0
  0
ARC
  5
11B2
330
131B
100
AcDbEntity
  8
profile aluminiowe
100
AcDbCircle
 10
922.7582627756533
 20
-320.6956156908891
 30
0.0
 40
0.5
100
AcDbArc
 50
0.0
 51
89.99999999999999
  0
LINE
  5
11B3
330
131B
100
AcDbEntity
  8
profile aluminiowe
100
AcDbLine
 10
920.6582627756533
 20
-320.1956156908891
 30
0.0
 11
920.6582627756533
 21
-352.1956156908891
 31
0.0
  0
LINE
  5
11B4
330
131B
100
AcDbEntity
  8
profile aluminiowe
100
AcDbLine
 10
920.6582627756533
 20
-320.1956156908891
 30
0.0
 11
922.7582627756533
 21
-320.1956156908891
 31
0.0
  0
LINE
  5
11B5
330
131B
100
AcDbEntity
  8
profile aluminiowe
100
AcDbLine
 10
943.2582627756533
 20
-352.1956156908891
 30
0.0
 11
920.6582627756533
 21
-352.1956156908891
 31
0.0
  0
LINE
  5
11B6
330
131B
100
AcDbEntity
  8
profile aluminiowe
100
AcDbLine
 10
923.0582627756534
 20
-350.7956156908891
 30
0.0
 11
940.7582627756532
 21
-350.7956156908891
 31
0.0
  0
HATCH
  5
11B7
330
131B
100
AcDbEntity
  8
profile alu kresk
100
AcDbHatch
 10
0.0
 20
0.0
 30
0.0
210
0.0
220
0.0
230
1.0
  2
ANSI31
 70
     0
 71
     0
 91
        1
 92
        0
 93
       20
 72
     1
 10
970.2582627756533
 20
-246.5526757508649
 11
971.5573008813299
 21
-247.3026757508649
 72
     1
 10
971.5573008813299
 20
-247.3026757508649
 11
953.5582627756532
 21
-278.477924237265
 72
     1
 10
953.5582627756532
 20
-278.477924237265
 11
953.5582627756534
 21
-318.1956156908891
 72
     1
 10
953.5582627756534
 20
-318.1956156908891
 11
944.2582627756533
 21
-318.1956156908891
 72
     1
 10
944.2582627756533
 20
-318.1956156908891
 11
943.2582627756533
 21
-319.1956156908891
 72
     1
 10
943.2582627756533
 20
-319.1956156908891
 11
943.2582627756533
 21
-352.1956156908891
 72
     1
 10
943.2582627756533
 20
-352.1956156908891
 11
920.6582627756533
 21
-352.1956156908891
 72
     1
 10
920.6582627756533
 20
-352.1956156908891
 11
920.6582627756533
 21
-320.1956156908891
 72
     1
 10
920.6582627756533
 20
-320.1956156908891
 11
922.7582627756533
 21
-320.1956156908891
 72
     2
 10
922.7582627756533
 20
-320.6956156908891
 40
0.5
 50
270.0
 51
360.0
 73
     0
 72
     1
 10
923.2582627756533
 20
-320.6956156908891
 11
923.2582627756533
 21
-322.6956156908891
 72
     1
 10
923.2582627756533
 20
-322.6956156908891
 11
922.0582627756532
 21
-321.4956156908892
 72
     1
 10
922.0582627756532
 20
-321.4956156908892
 11
922.0582627756532
 21
-349.7956156908891
 72
     1
 10
922.0582627756532
 20
-349.7956156908891
 11
923.0582627756532
 21
-350.7956156908891
 72
     1
 10
923.0582627756532
 20
-350.7956156908891
 11
940.7582627756532
 21
-350.7956156908891
 72
     1
 10
940.7582627756532
 20
-350.7956156908891
 11
941.7582627756532
 21
-349.7956156908891
 72
     1
 10
941.7582627756532
 20
-349.7956156908891
 11
941.7582627756533
 21
-316.5956156908891
 72
     1
 10
941.7582627756533
 20
-316.5956156908891
 11
951.7582627756533
 21
-316.5956156908891
 72
     1
 10
951.7582627756533
 20
-316.5956156908891
 11
951.7582627756533
 21
-278.5956156908891
 72
     1
 10
951.7582627756533
 20
-278.5956156908891
 11
970.2582627756533
 21
-246.5526757508649
 97
        0
 75
     0
 76
     1
 52
180.0
 41
0.445421594448219
 77
     0
 78
     1
 53
225.0
 43
0.0
 44
0.0
 45
1.0
 46
-1.0
 79
     0
 98
        0
1001
ACAD
1010
0.0
1020
0.0
1030
0.0
  0
HATCH
  5
11B8
330
131B
100
AcDbEntity
  8
uszczelka EPDM
100
AcDbHatch
 10
0.0
 20
0.0
 30
0.0
210
0.0
220
0.0
230
1.0
  2
SOLID
 70
     1
 71
     0
 91
        1
 92
        0
 93
        7
 72
     1
 10
922.3324715767446
 20
-320.3314887308305
 11
922.8227100053776
 21
-320.3717133080838
 72
     1
 10
922.8227100053776
 20
-320.3717133080838
 11
922.7008881187536
 21
-323.0759613934927
 72
     1
 10
922.7008881187536
 20
-323.0759613934927
 11
922.387490659132
 21
-323.8187817165202
 72
     1
 10
922.387490659132
 20
-323.8187817165202
 11
924.6729505653818
 21
-326.1288754659696
 72
     1
 10
924.6729505653818
 20
-326.1288754659696
 11
924.5152474726984
 21
-316.7333988092722
 72
     1
 10
924.5152474726984
 20
-316.7333988092722
 11
922.350310132478
 21
-319.4854797764337
 72
     1
 10
922.350310132478
 20
-319.4854797764337
 11
922.3324715767446
 21
-320.3314887308305
 97
        0
 75
     0
 76
     1
 98
        0
  0
LINE
  5
11B9
330
131B
100
AcDbEntity
  8
swietlik poliweglan
100
AcDbLine
 10
941.1077818284916
 20
-347.374237720877
 30
0.0
 11
925.1077818284916
 21
-347.374237720877
 31
0.0
  0
LINE
  5
11BA
330
131B
100
AcDbEntity
  8
podstawa swietlika
100
AcDbLine
 10
946.1077818284916
 20
-419.374145720877
 30
0.0
 11
946.1077818284916
 21
-319.374145720877
 31
0.0
  0
LINE
  5
11BB
330
131B
100
AcDbEntity
  8
swietlik poliweglan
100
AcDbLine
 10
941.1077818284916
 20
-205.4067770542105
 30
0.0
 11
941.1077818284916
 21
-347.374237720877
 31
0.0
  0
LINE
  5
11BC
330
131B
100
AcDbEntity
  8
swietlik poliweglan
100
AcDbLine
 10
938.1881748040494
 20
-347.374237720877
 30
0.0
 11
938.1881748040502
 21
-205.4067770542106
 31
0.0
  0
LINE
  5
11BD
330
131B
100
AcDbEntity
  8
swietlik poliweglan
100
AcDbLine
 10
935.1881748040499
 20
-347.374237720877
 30
0.0
 11
935.1881748040495
 21
-205.4067770542106
 31
0.0
  0
LINE
  5
11BE
330
131B
100
AcDbEntity
  8
swietlik poliweglan
100
AcDbLine
 10
931.188174804049
 20
-347.374237720877
 30
0.0
 11
931.1881748040503
 21
-205.4067770542106
 31
0.0
  0
LINE
  5
11BF
330
131B
100
AcDbEntity
  8
swietlik poliweglan
100
AcDbLine
 10
928.1077818284917
 20
-347.374237720877
 30
0.0
 11
928.1077818284913
 21
-205.4067770542106
 31
0.0
  0
LINE
  5
11C0
330
131B
100
AcDbEntity
  8
swietlik poliweglan
100
AcDbLine
 10
925.1077818284917
 20
-347.374237720877
 30
0.0
 11
925.1077818284913
 21
-205.4067770542106
 31
0.0
  0
LEADER
  5
11C1
330
131B
100
AcDbEntity
  8
wymiary
100
AcDbLeader
  3
QCADDimStyle
 76
     3
 10
1005.122658211364
 20
-355.4067770542106
 30
0.0
 10
1035.122658211364
 20
-325.4067770542106
 30
0.0
 10
1081.122658211364
 20
-325.4067770542105
 30
0.0
  0
MTEXT
  5
11C2
330
131B
100
AcDbEntity
  8
wymiary
100
AcDbMText
 10
1034.622658211364
 20
-321.6734437208776
 30
0.0
 40
6.0
 41
100.0
 46
0.0
 71
     7
 72
     1
  1
podstawa
  7
textstyle40
 73
     1
 44
1.0
  0
MTEXT
  5
11C3
330
131B
100
AcDbEntity
  8
wymiary
100
AcDbMText
 10
984.6226582113635
 20
-261.6734437208781
 30
0.0
 40
6.0
 41
100.0
 46
0.0
 71
     7
 72
     1
  1
katownik\~\Paluminiowy
  7
textstyle41
 73
     1
 44
1.0
  0
LINE
  5
11C4
330
131B
100
AcDbEntity
  8
profile aluminiowe
100
AcDbLine
 10
954.6582627756533
 20
-279.1956156908891
 30
0.0
 11
954.6582627756533
 21
-318.1956156908891
 31
0.0
  0
LINE
  5
11C5
330
131B
100
AcDbEntity
  8
profile aluminiowe
100
AcDbLine
 10
954.6582627756533
 20
-279.1956156908891
 30
0.0
 11
956.6582627756533
 21
-279.1956156908891
 31
0.0
  0
LINE
  5
11C6
330
131B
100
AcDbEntity
  8
profile aluminiowe
100
AcDbLine
 10
956.6582627756533
 20
-279.1956156908891
 30
0.0
 11
956.6582627756533
 21
-311.1956156908891
 31
0.0
  0
ARC
  5
11C7
330
131B
100
AcDbEntity
  8
profile aluminiowe
100
AcDbCircle
 10
961.6582627756533
 20
-311.1956156908891
 30
0.0
 40
5.0
100
AcDbArc
 50
180.0
 51
270.0
  0
LINE
  5
11C8
330
131B
100
AcDbEntity
  8
podstawa swietlika
100
AcDbLine
 10
946.1077818284916
 20
-319.374145720877
 30
0.0
 11
1016.107781828492
 21
-319.374145720877
 31
0.0
  0
LINE
  5
11C9
330
131B
100
AcDbEntity
  8
profile aluminiowe
100
AcDbLine
 10
961.6582627756533
 20
-316.1956156908891
 30
0.0
 11
1001.658262775653
 21
-316.1956156908891
 31
0.0
  0
LINE
  5
11CA
330
131B
100
AcDbEntity
  8
profile aluminiowe
100
AcDbLine
 10
954.6582627756533
 20
-318.1956156908891
 30
0.0
 11
1001.658262775653
 21
-318.1956156908891
 31
0.0
  0
HATCH
  5
11CB
330
131B
100
AcDbEntity
  8
profile alu kresk
100
AcDbHatch
 10
0.0
 20
0.0
 30
0.0
210
0.0
220
0.0
230
1.0
  2
ANSI31
 70
     0
 71
     0
 91
        1
 92
        0
 93
        7
 72
     1
 10
954.6582627756533
 20
-279.1956156908891
 11
954.6582627756533
 21
-318.1956156908891
 72
     1
 10
954.6582627756533
 20
-318.1956156908891
 11
1001.658262775653
 21
-318.1956156908891
 72
     1
 10
1001.658262775653
 20
-318.1956156908891
 11
1001.658262775653
 21
-316.1956156908891
 72
     1
 10
1001.658262775653
 20
-316.1956156908891
 11
961.6582627756533
 21
-316.1956156908891
 72
     2
 10
961.6582627756533
 20
-311.1956156908891
 40
5.0
 50
90.0
 51
180.0
 73
     0
 72
     1
 10
956.6582627756533
 20
-311.1956156908891
 11
956.6582627756533
 21
-279.1956156908891
 72
     1
 10
956.6582627756533
 20
-279.1956156908891
 11
954.6582627756533
 21
-279.1956156908891
 97
        0
 75
     0
 76
     1
 52
90.0
 41
0.445421594448219
 77
     0
 78
     1
 53
135.0
 43
0.0
 44
0.0
 45
-1.0
 46
-1.0
 79
     0
 98
        0
1001
ACAD
1010
0.0
1020
0.0
1030
0.0
  0
LINE
  5
11CC
330
131B
100
AcDbEntity
  8
profile aluminiowe
100
AcDbLine
 10
1001.658262775653
 20
-316.1956156908891
 30
0.0
 11
1001.658262775653
 21
-318.1956156908891
 31
0.0
  0
LINE
  5
11CD
330
131B
100
AcDbEntity
  8
podstawa swietlika
100
AcDbLine
 10
1016.107781828492
 20
-419.374145720877
 30
0.0
 11
1016.107781828492
 21
-319.374145720877
 31
0.0
  0
LEADER
  5
11CE
330
131B
100
AcDbEntity
  8
wymiary
100
AcDbLeader
  3
QCADDimStyle
 76
     3
 10
956.6226582113638
 20
-288.9991969610505
 30
0.0
 10
985.122658211364
 20
-265.4067770542106
 30
0.0
 10
1031.122658211364
 20
-265.4067770542105
 30
0.0
  0
HATCH
  5
11CF
330
131B
100
AcDbEntity
  8
podstawa swietlika
100
AcDbHatch
 10
0.0
 20
0.0
 30
0.0
210
0.0
220
0.0
230
1.0
  2
ANSI31
 70
     0
 71
     0
 91
        1
 92
        0
 93
        4
 72
     1
 10
946.1077818284916
 20
-319.374145720877
 11
1016.107781828492
 21
-319.374145720877
 72
     1
 10
1016.107781828492
 20
-319.374145720877
 11
1016.107781828492
 21
-419.374145720877
 72
     1
 10
1016.107781828492
 20
-419.374145720877
 11
946.1077818284916
 21
-419.374145720877
 72
     1
 10
946.1077818284916
 20
-419.374145720877
 11
946.1077818284916
 21
-319.374145720877
 97
        0
 75
     0
 76
     1
 52
90.0
 41
2.227107972241095
 77
     0
 78
     1
 53
135.0
 43
0.0
 44
0.0
 45
-5.000000000000001
 46
-5.0
 79
     0
 98
        0
1001
ACAD
1010
0.0
1020
0.0
1030
0.0
  0
LEADER
  5
11D0
330
131B
100
AcDbEntity
  8
wymiary
100
AcDbLeader
  3
QCADDimStyle
 76
     3
 10
942.3370541903363
 20
-239.4370122026249
 30
0.0
 10
985.122658211364
 20
-185.4067770542106
 30
0.0
 10
1044.122658211364
 20
-185.4067770542105
 30
0.0
  0
MTEXT
  5
11D1
330
131B
100
AcDbEntity
  8
wymiary
100
AcDbMText
 10
850.8726582113633
 20
-359.8401103875443
 30
0.0
 40
6.0
 41
100.0
 46
0.0
 71
     7
 72
     1
  1
profil E-2126\Plub E-1035
  7
textstyle42
 73
     1
 44
1.0
  0
LEADER
  5
11D2
330
131B
100
AcDbEntity
  8
wymiary
100
AcDbLeader
  3
QCADDimStyle
 76
     3
 10
922.8888162576669
 20
-317.3499494241314
 30
0.0
 10
895.122658211364
 20
-295.4067770542106
 30
0.0
 10
845.122658211364
 20
-295.4067770542106
 30
0.0
  0
MTEXT
  5
11D3
330
131B
100
AcDbEntity
  8
wymiary
100
AcDbMText
 10
847.1226582113637
 20
-292.4067770542106
 30
0.0
 40
6.0
 41
100.0
 46
0.0
 71
     7
 72
     1
  1
uszczelka\~A
  7
textstyle43
 73
     1
 44
1.0
  0
LEADER
  5
11D4
330
131B
100
AcDbEntity
  8
wymiary
100
AcDbLeader
  3
QCADDimStyle
 76
     3
 10
920.6582627756533
 20
-339.1044393217254
 30
0.0
 10
895.122658211364
 20
-365.4067770542106
 30
0.0
 10
849.1226582113642
 20
-365.4067770542105
 30
0.0
  0
MTEXT
  5
11D5
330
131B
100
AcDbEntity
  8
wymiary
100
AcDbMText
 10
845.1226582113638
 20
-135.4067770542108
 30
0.0
 40
8.0
 41
100.0
 46
0.0
 71
     7
 72
     1
  1
Mocowanie sciany czolowej swietlika do podstawy
  7
textstyle44
 73
     1
 44
1.0
  0
CIRCLE
  5
11D6
330
131B
100
AcDbEntity
  8
osie
100
AcDbCircle
 10
970.0
 20
-250.0
 30
0.0
 40
190.8080763507072
  0
LINE
  5
11D7
330
131B
100
AcDbEntity
  8
osie
100
AcDbLine
 10
895.122658211364
 20
-205.4067770542106
 30
0.0
 11
965.122658211364
 21
-205.4067770542106
 31
0.0
  0
LINE
  5
11D8
330
131B
100
AcDbEntity
  8
sruby
100
AcDbLine
 10
974.4226582113639
 20
-315.989779846424
 30
0.0
 11
974.4226582113639
 21
-313.0237742619974
 31
0.0
  0
LINE
  5
11D9
330
131B
100
AcDbEntity
  8
sruby
100
AcDbLine
 10
975.1726582113639
 20
-312.023774261997
 30
0.0
 11
982.6726582113639
 21
-312.0237742619974
 31
0.0
  0
LINE
  5
11DA
330
131B
100
AcDbEntity
  8
sruby
100
AcDbLine
 10
983.4226582113639
 20
-313.0237742619979
 30
0.0
 11
983.4226582113639
 21
-315.9897798464238
 31
0.0
  0
LINE
  5
11DB
330
131B
100
AcDbEntity
  8
sruby
100
AcDbLine
 10
976.1726582113639
 20
-315.989779846423
 30
0.0
 11
976.1726582113639
 21
-312.9897798464233
 31
0.0
  0
LINE
  5
11DC
330
131B
100
AcDbEntity
  8
sruby
100
AcDbLine
 10
980.9226582113639
 20
-315.989779846423
 30
0.0
 11
980.922658211365
 21
-312.9897798464241
 31
0.0
  0
LINE
  5
11DD
330
131B
100
AcDbEntity
  8
sruby
100
AcDbLine
 10
974.4226582113639
 20
-313.0237742619974
 30
0.0
 11
983.4226582113639
 21
-313.0237742619979
 31
0.0
  0
LINE
  5
11DE
330
131B
100
AcDbEntity
  8
sruby
100
AcDbLine
 10
980.922658211365
 20
-312.9897798464241
 30
0.0
 11
981.9226582113639
 21
-312.0237742619984
 31
0.0
  0
LINE
  5
11DF
330
131B
100
AcDbEntity
  8
sruby
100
AcDbLine
 10
980.922658211365
 20
-312.9897798464241
 30
0.0
 11
979.9226582113639
 21
-312.0237742619989
 31
0.0
  0
LINE
  5
11E0
330
131B
100
AcDbEntity
  8
sruby
100
AcDbLine
 10
983.4226582113639
 20
-313.0237742619979
 30
0.0
 11
982.6726582113639
 21
-312.0237742619974
 31
0.0
  0
LINE
  5
11E1
330
131B
100
AcDbEntity
  8
sruby
100
AcDbLine
 10
976.1726582113639
 20
-312.9897798464233
 30
0.0
 11
977.1726582113639
 21
-312.0237742619971
 31
0.0
  0
LINE
  5
11E2
330
131B
100
AcDbEntity
  8
sruby
100
AcDbLine
 10
976.1726582113639
 20
-312.9897798464233
 30
0.0
 11
975.1726582113639
 21
-312.023774261997
 31
0.0
  0
LINE
  5
11E3
330
131B
100
AcDbEntity
  8
sruby
100
AcDbLine
 10
974.4226582113639
 20
-313.0237742619974
 30
0.0
 11
975.1726582113639
 21
-312.023774261997
 31
0.0
  0
LINE
  5
11E4
330
131B
100
AcDbEntity
  8
sruby
100
AcDbLine
 10
959.0202138437884
 20
-298.8972657485034
 30
0.0
 11
961.0202138437893
 21
-298.8972657485034
 31
0.0
  0
LINE
  5
11E5
330
131B
100
AcDbEntity
  8
sruby
100
AcDbLine
 10
957.1205443849097
 20
-293.8972657485034
 30
0.0
 11
958.1205443849088
 21
-299.8972657485034
 31
0.0
  0
LINE
  5
11E6
330
131B
100
AcDbEntity
  8
sruby
100
AcDbLine
 10
958.1205443849088
 20
-299.8972657485034
 30
0.0
 11
958.2872110515758
 21
-298.8972657485034
 31
0.0
  0
LINE
  5
11E7
330
131B
100
AcDbEntity
  8
sruby
100
AcDbLine
 10
959.1205443849077
 20
-293.8972657485034
 30
0.0
 11
959.2872110515751
 21
-294.8972657485034
 31
0.0
  0
LINE
  5
11E8
330
131B
100
AcDbEntity
  8
sruby
100
AcDbLine
 10
960.1205443849088
 20
-299.8972657485034
 30
0.0
 11
960.2872110515758
 21
-298.8972657485034
 31
0.0
  0
LINE
  5
11E9
330
131B
100
AcDbEntity
  8
sruby
100
AcDbLine
 10
959.9538777182426
 20
-298.8972657485034
 30
0.0
 11
960.1205443849088
 21
-299.8972657485034
 31
0.0
  0
LINE
  5
11EA
330
131B
100
AcDbEntity
  8
sruby
100
AcDbLine
 10
956.9538777182426
 20
-294.8972657485034
 30
0.0
 11
957.1205443849097
 21
-293.8972657485034
 31
0.0
  0
LINE
  5
11EB
330
131B
100
AcDbEntity
  8
sruby
100
AcDbLine
 10
958.9538777182428
 20
-294.8972657485034
 30
0.0
 11
959.1205443849077
 21
-293.8972657485034
 31
0.0
  0
LINE
  5
11EC
330
131B
100
AcDbEntity
  8
sruby
100
AcDbLine
 10
959.1205443849077
 20
-293.8972657485034
 30
0.0
 11
960.1205443849088
 21
-299.8972657485034
 31
0.0
  0
LINE
  5
11ED
330
131B
100
AcDbEntity
  8
sruby
100
AcDbLine
 10
960.1205443849091
 20
-298.8972657485034
 30
0.0
 11
961.1205443849095
 21
-298.8972657485034
 31
0.0
  0
LINE
  5
11EE
330
131B
100
AcDbEntity
  8
sruby
100
AcDbLine
 10
951.1210167901195
 20
-301.3972657485034
 30
0.0
 11
948.1550112056927
 21
-301.3972657485034
 31
0.0
  0
LINE
  5
11EF
330
131B
100
AcDbEntity
  8
sruby
100
AcDbLine
 10
947.1550112056923
 20
-300.6472657485034
 30
0.0
 11
947.1550112056927
 21
-293.1472657485034
 31
0.0
  0
LINE
  5
11F0
330
131B
100
AcDbEntity
  8
sruby
100
AcDbLine
 10
948.1550112056932
 20
-292.3972657485034
 30
0.0
 11
951.121016790119
 21
-292.3972657485034
 31
0.0
  0
LINE
  5
11F1
330
131B
100
AcDbEntity
  8
sruby
100
AcDbLine
 10
951.1210167901183
 20
-299.6472657485034
 30
0.0
 11
948.1210167901186
 21
-299.6472657485034
 31
0.0
  0
LINE
  5
11F2
330
131B
100
AcDbEntity
  8
sruby
100
AcDbLine
 10
951.1210167901183
 20
-294.8972657485034
 30
0.0
 11
948.1210167901195
 21
-294.8972657485023
 31
0.0
  0
LINE
  5
11F3
330
131B
100
AcDbEntity
  8
sruby
100
AcDbLine
 10
948.1550112056927
 20
-301.3972657485034
 30
0.0
 11
948.1550112056932
 21
-292.3972657485034
 31
0.0
  0
LINE
  5
11F4
330
131B
100
AcDbEntity
  8
sruby
100
AcDbLine
 10
948.1210167901195
 20
-294.8972657485023
 30
0.0
 11
947.1550112056937
 21
-293.8972657485034
 31
0.0
  0
LINE
  5
11F5
330
131B
100
AcDbEntity
  8
sruby
100
AcDbLine
 10
948.1210167901195
 20
-294.8972657485023
 30
0.0
 11
947.1550112056943
 21
-295.8972657485034
 31
0.0
  0
LINE
  5
11F6
330
131B
100
AcDbEntity
  8
sruby
100
AcDbLine
 10
948.1550112056932
 20
-292.3972657485034
 30
0.0
 11
947.1550112056927
 21
-293.1472657485034
 31
0.0
  0
LINE
  5
11F7
330
131B
100
AcDbEntity
  8
sruby
100
AcDbLine
 10
948.1210167901186
 20
-299.6472657485034
 30
0.0
 11
947.1550112056925
 21
-298.6472657485034
 31
0.0
  0
LINE
  5
11F8
330
131B
100
AcDbEntity
  8
sruby
100
AcDbLine
 10
948.1210167901186
 20
-299.6472657485034
 30
0.0
 11
947.1550112056923
 21
-300.6472657485034
 31
0.0
  0
LINE
  5
11F9
330
131B
100
AcDbEntity
  8
sruby
100
AcDbLine
 10
948.1550112056927
 20
-301.3972657485034
 30
0.0
 11
947.1550112056923
 21
-300.6472657485034
 31
0.0
  0
LINE
  5
11FA
330
131B
100
AcDbEntity
  8
sruby
100
AcDbLine
 10
957.122658211364
 20
-298.8972657485034
 30
0.0
 11
959.0202138437884
 21
-298.8972657485034
 31
0.0
  0
LINE
  5
11FB
330
131B
100
AcDbEntity
  8
sruby
100
AcDbLine
 10
961.0202138437891
 20
-294.8972657485034
 30
0.0
 11
956.9538777182426
 21
-294.8972657485034
 31
0.0
  0
LINE
  5
11FC
330
131B
100
AcDbEntity
  8
sruby
100
AcDbLine
 10
961.1056485493583
 20
-298.8730571596953
 30
0.0
 11
963.1056485493592
 21
-298.8730571596953
 31
0.0
  0
LINE
  5
11FD
330
131B
100
AcDbEntity
  8
sruby
100
AcDbLine
 10
962.2059790904788
 20
-299.8730571596953
 30
0.0
 11
962.3726457571457
 21
-298.8730571596953
 31
0.0
  0
LINE
  5
11FE
330
131B
100
AcDbEntity
  8
sruby
100
AcDbLine
 10
961.0393124238125
 20
-294.8730571596953
 30
0.0
 11
961.2059790904776
 21
-293.8730571596953
 31
0.0
  0
LINE
  5
11FF
330
131B
100
AcDbEntity
  8
sruby
100
AcDbLine
 10
961.2059790904776
 20
-293.8730571596953
 30
0.0
 11
962.2059790904788
 21
-299.8730571596953
 31
0.0
  0
LINE
  5
1200
330
131B
100
AcDbEntity
  8
sruby
100
AcDbLine
 10
963.105648549359
 20
-294.8730571596953
 30
0.0
 11
961.0393124238125
 21
-294.8730571596953
 31
0.0
  0
LINE
  5
1201
330
131B
100
AcDbEntity
  8
sruby
100
AcDbLine
 10
963.0056485493582
 20
-298.8730571596953
 30
0.0
 11
965.0056485493593
 21
-298.8730571596953
 31
0.0
  0
LINE
  5
1202
330
131B
100
AcDbEntity
  8
sruby
100
AcDbLine
 10
964.1059790904786
 20
-299.8730571596953
 30
0.0
 11
964.2726457571458
 21
-298.8730571596953
 31
0.0
  0
LINE
  5
1203
330
131B
100
AcDbEntity
  8
sruby
100
AcDbLine
 10
962.9393124238126
 20
-294.8730571596953
 30
0.0
 11
963.1059790904777
 21
-293.8730571596953
 31
0.0
  0
LINE
  5
1204
330
131B
100
AcDbEntity
  8
sruby
100
AcDbLine
 10
963.1059790904777
 20
-293.8730571596953
 30
0.0
 11
964.1059790904786
 21
-299.8730571596953
 31
0.0
  0
LINE
  5
1205
330
131B
100
AcDbEntity
  8
sruby
100
AcDbLine
 10
965.0056485493591
 20
-294.8730571596953
 30
0.0
 11
962.9393124238126
 21
-294.8730571596953
 31
0.0
  0
LINE
  5
1206
330
131B
100
AcDbEntity
  8
sruby
100
AcDbLine
 10
965.0056485493593
 20
-298.8730571596953
 30
0.0
 11
965.0056485493591
 21
-294.8730571596953
 31
0.0
  0
MTEXT
  5
1207
330
131B
100
AcDbEntity
  8
wymiary
100
AcDbMText
 10
985.1226582113637
 20
-183.4067770542115
 30
0.0
 40
6.0
 41
100.0
 46
0.0
 71
     7
 72
     1
  1
plyta poliweglanowa\Psciana czolowa
  7
textstyle45
 73
     1
 44
1.0
  0
LINE
  5
1208
330
131B
100
AcDbEntity
  8
ramka
100
AcDbLine
 10
1600.0
 20
-660.0
 30
0.0
 11
660.0
 21
-660.0
 31
0.0
  0
LINE
  5
1209
330
131B
100
AcDbEntity
  8
ramka
100
AcDbLine
 10
660.0
 20
-660.0
 30
0.0
 11
660.0
 21
700.0
 31
0.0
  0
LINE
  5
120A
330
131B
100
AcDbEntity
  8
ramka
100
AcDbLine
 10
660.0
 20
700.0
 30
0.0
 11
1600.0
 21
700.0
 31
0.0
  0
LINE
  5
120B
330
131B
100
AcDbEntity
  8
ramka
100
AcDbLine
 10
1600.0
 20
700.0000000000001
 30
0.0
 11
1600.0
 21
-660.0
 31
0.0
  0
MTEXT
  5
120C
330
131B
100
AcDbEntity
  8
ramka
100
AcDbMText
 10
929.9999999999998
 20
-560.0000000000006
 30
0.0
 40
8.0
 41
0.0
 46
0.0
 71
     7
 72
     1
  1
Rys.
  7
textstyle46
 73
     1
 44
1.0
  0
LINE
  5
1215
330
131B
100
AcDbEntity
  8
0
100
AcDbLine
 10
1213.0
 20
-34.0
 30
0.0
 11
1212.998848413133
 21
-5.915325844104252
 31
0.0
  0
ENDSEC
  0
SECTION
  2
OBJECTS
  0
DICTIONARY
  5
1309
330
0
100
AcDbDictionary
281
     1
  3
ACAD_DETAILVIEWSTYLE
350
1440
  3
ACAD_GROUP
350
130A
  3
ACAD_LAYOUT
350
1316
  3
ACAD_MATERIAL
350
133F
  3
ACAD_MLEADERSTYLE
350
1367
  3
ACAD_MLINESTYLE
350
1313
  3
ACAD_PLOTSETTINGS
350
1315
  3
ACAD_PLOTSTYLENAME
350
130B
  3
ACAD_SCALELIST
350
1343
  3
ACAD_SECTIONVIEWSTYLE
350
1441
  3
ACAD_TABLESTYLE
350
1365
  3
ACAD_VISUALSTYLE
350
1326
  3
ACDB_RECOMPOSE_DATA
350
143D
  3
AcDbVariableDictionary
350
1409
  3
QCAD_OBJECTS
350
136B
  0
SUN
  5
1369
330
1325
100
AcDbSun
 90
        1
290
     0
 63
     7
421
 16777215
 40
1.0
291
     1
 91
  2455826
 92
 54000000
292
     0
 70
     2
 71
   256
280
     1
  0
DICTIONARY
  5
1440
102
{ACAD_REACTORS
330
1309
102
}
330
1309
100
AcDbDictionary
281
     1
  0
DICTIONARY
  5
130A
102
{ACAD_REACTORS
330
1309
102
}
330
1309
100
AcDbDictionary
281
     1
  0
DICTIONARY
  5
1316
102
{ACAD_REACTORS
330
1309
102
}
330
1309
100
AcDbDictionary
281
     1
  3
Layout1
350
131A
  3
Layout2
350
1322
  3
Model
350
131E
  0
DICTIONARY
  5
133F
102
{ACAD_REACTORS
330
1309
102
}
330
1309
100
AcDbDictionary
281
     1
  3
ByBlock
350
1341
  3
ByLayer
350
1340
  3
Global
350
1342
  0
DICTIONARY
  5
1367
102
{ACAD_REACTORS
330
1309
102
}
330
1309
100
AcDbDictionary
281
     1
  3
Standard
350
1368
  0
DICTIONARY
  5
1313
102
{ACAD_REACTORS
330
1309
102
}
330
1309
100
AcDbDictionary
281
     1
  3
Standard
350
1314
  0
DICTIONARY
  5
1315
102
{ACAD_REACTORS
330
1309
102
}
330
1309
100
AcDbDictionary
281
     1
  0
ACDBDICTIONARYWDFLT
  5
130B
102
{ACAD_REACTORS
330
1309
102
}
330
1309
100
AcDbDictionary
281
     1
  3
Normal
350
130C
100
AcDbDictionaryWithDefault
340
130C
  0
DICTIONARY
  5
1343
102
{ACAD_REACTORS
330
1309
102
}
330
1309
100
AcDbDictionary
281
     1
  3
A0
350
1344
  3
A1
350
1345
  3
A2
350
1346
  3
A3
350
1347
  3
A4
350
1348
  3
A5
350
1349
  3
A6
350
134A
  3
A7
350
134B
  3
A8
350
134C
  3
A9
350
134D
  3
B0
350
134E
  3
B1
350
134F
  3
B2
350
1350
  3
B3
350
1351
  3
B4
350
1352
  3
B5
350
1353
  3
B6
350
1354
  3
B7
350
1355
  3
B8
350
1356
  3
B9
350
1357
  3
C0
350
1358
  3
C1
350
1359
  3
C2
350
135A
  3
C3
350
135B
  3
C4
350
135C
  3
C5
350
135D
  3
C6
350
135E
  3
C7
350
135F
  3
C8
350
1360
  3
C9
350
1361
  3
D0
350
1362
  3
D1
350
1363
  3
D2
350
1364
  0
DICTIONARY
  5
1441
102
{ACAD_REACTORS
330
1309
102
}
330
1309
100
AcDbDictionary
281
     1
  0
DICTIONARY
  5
1365
102
{ACAD_REACTORS
330
1309
102
}
330
1309
100
AcDbDictionary
281
     1
  3
Standard
350
1366
  0
DICTIONARY
  5
1326
102
{ACAD_REACTORS
330
1309
102
}
330
1309
100
AcDbDictionary
281
     1
  3
2dWireframe
350
132B
  3
Basic
350
132E
  3
Brighten
350
1332
  3
ColorChange
350
1336
  3
Conceptual
350
1330
  3
Dim
350
1331
  3
EdgeColorOff
350
1339
  3
Facepattern
350
1335
  3
Flat
350
1327
  3
FlatWithEdges
350
1328
  3
Gouraud
350
1329
  3
GouraudWithEdges
350
132A
  3
Hidden
350
132D
  3
JitterOff
350
1337
  3
Linepattern
350
1334
  3
OverhangOff
350
1338
  3
Realistic
350
132F
  3
Shaded
350
133E
  3
Shaded with edges
350
133D
  3
Shades of Gray
350
133A
  3
Sketchy
350
133B
  3
Thicken
350
1333
  3
Wireframe
350
132C
  3
X-Ray
350
133C
  0
XRECORD
  5
143D
102
{ACAD_REACTORS
330
1309
102
}
330
1309
100
AcDbXrecord
280
     1
 90
        1
330
1366
  0
DICTIONARY
  5
1409
102
{ACAD_REACTORS
330
1309
102
}
330
1309
100
AcDbDictionary
281
     1
  3
CANNOSCALE
350
140A
  3
CMLEADERSTYLE
350
143F
  3
CTABLESTYLE
350
143E
  0
DICTIONARY
  5
136B
102
{ACAD_REACTORS
330
1309
102
}
330
1309
100
AcDbDictionary
281
     1
  3
ColorSettings/BackgroundColor
350
136D
  3
ColorSettings/ColorMode
350
136E
  3
Grid/DisplayGrid00
350
136F
  3
Grid/DisplayGrid01
350
1370
  3
Grid/DisplayGrid02
350
1371
  3
Grid/DisplayGrid03
350
1372
  3
Grid/GridSpacingX00
350
1373
  3
Grid/GridSpacingX01
350
1374
  3
Grid/GridSpacingX02
350
1375
  3
Grid/GridSpacingX03
350
1376
  3
Grid/GridSpacingY00
350
1377
  3
Grid/GridSpacingY01
350
1378
  3
Grid/GridSpacingY02
350
1379
  3
Grid/GridSpacingY03
350
137A
  3
Grid/IsometricGrid00
350
137B
  3
Grid/IsometricGrid01
350
137C
  3
Grid/IsometricGrid02
350
137D
  3
Grid/IsometricGrid03
350
137E
  3
Grid/IsometricProjection00
350
137F
  3
Grid/IsometricProjection01
350
1380
  3
Grid/IsometricProjection02
350
1381
  3
Grid/IsometricProjection03
350
1382
  3
Grid/MetaGridSpacingX00
350
1383
  3
Grid/MetaGridSpacingX01
350
1384
  3
Grid/MetaGridSpacingX02
350
1385
  3
Grid/MetaGridSpacingX03
350
1386
  3
Grid/MetaGridSpacingY00
350
1387
  3
Grid/MetaGridSpacingY01
350
1388
  3
Grid/MetaGridSpacingY02
350
1389
  3
Grid/MetaGridSpacingY03
350
138A
  3
MultiPageSettings/Columns
350
138B
  3
MultiPageSettings/GlueMarginsBottom
350
138C
  3
MultiPageSettings/GlueMarginsLeft
350
138D
  3
MultiPageSettings/GlueMarginsRight
350
138E
  3
MultiPageSettings/GlueMarginsTop
350
138F
  3
MultiPageSettings/PrintCropMarks
350
1390
  3
MultiPageSettings/Rows
350
1391
  3
PageSettings/OffsetX
350
1392
  3
PageSettings/OffsetY
350
1393
  3
PageSettings/PageOrientation
350
1394
  3
PageSettings/PaperHeight
350
1395
  3
PageSettings/PaperWidth
350
1396
  3
PageSettings/Scale
350
1397
  3
PageSettings/ShowPaperBorders
350
1398
  3
QCADVersion
350
1399
  3
UnitSettings/PaperUnit
350
139A
  0
LAYOUT
  5
131A
102
{ACAD_REACTORS
330
1316
102
}
330
1316
100
AcDbPlotSettings
  1

  2
none_device
  4

  6

 40
0.0
 41
0.0
 42
0.0
 43
0.0
 44
0.0
 45
0.0
 46
0.0
 47
0.0
 48
0.0
 49
0.0
140
0.0
141
0.0
142
1.0
143
1.0
 70
   688
 72
     0
 73
     0
 74
     5
  7

 75
    16
 76
     0
 77
     2
 78
   300
147
1.0
148
0.0
149
0.0
100
AcDbLayout
  1
Layout1
 70
     1
 71
     1
 10
0.0
 20
0.0
 11
297.0
 21
210.0
 12
-168.2483360422704
 22
387.3151499857087
 32
0.0
 14
1.000000000000000E+20
 24
1.000000000000000E+20
 34
1.000000000000000E+20
 15
-1.000000000000000E+20
 25
-1.000000000000000E+20
 35
-1.000000000000000E+20
146
0.0
 13
0.0
 23
0.0
 33
0.0
 16
1.0
 26
0.0
 36
0.0
 17
0.0
 27
1.0
 37
0.0
 76
     0
330
1317
  0
LAYOUT
  5
1322
102
{ACAD_REACTORS
330
1316
102
}
330
1316
100
AcDbPlotSettings
  1

  2
none_device
  4

  6

 40
0.0
 41
0.0
 42
0.0
 43
0.0
 44
0.0
 45
0.0
 46
0.0
 47
0.0
 48
0.0
 49
0.0
140
0.0
141
0.0
142
1.0
143
1.0
 70
   688
 72
     0
 73
     0
 74
     5
  7

 75
    16
 76
     0
 77
     2
 78
   300
147
1.0
148
0.0
149
0.0
100
AcDbLayout
  1
Layout2
 70
     1
 71
     2
 10
0.0
 20
0.0
 11
0.0
 21
0.0
 12
0.0
 22
0.0
 32
0.0
 14
0.0
 24
0.0
 34
0.0
 15
0.0
 25
0.0
 35
0.0
146
0.0
 13
0.0
 23
0.0
 33
0.0
 16
1.0
 26
0.0
 36
0.0
 17
0.0
 27
1.0
 37
0.0
 76
     0
330
131F
  0
LAYOUT
  5
131E
102
{ACAD_REACTORS
330
1316
102
}
330
1316
100
AcDbPlotSettings
  1

  2
none_device
  4
Letter_(8.50_x_11.00_Inches)
  6

 40
6.35
 41
6.35
 42
6.35000508
 43
6.35000508
 44
215.9
 45
279.4
 46
0.0
 47
0.0
 48
0.0
 49
0.0
140
0.0
141
0.0
142
1.0
143
1.0
 70
  1712
 72
     0
 73
     0
 74
     0
  7

 75
     0
 76
     0
 77
     2
 78
   300
147
1.0
148
0.0
149
0.0
100
AcDbLayout
  1
Model
 70
     1
 71
     0
 10
0.0
 20
0.0
 11
0.0
 21
0.0
 12
0.0
 22
0.0
 32
0.0
 14
-0.0000000000001137
 24
0.0
 34
-0.25
 15
419.9999999999999
 25
594.0
 35
0.25
146
0.0
 13
0.0
 23
0.0
 33
0.0
 16
1.0
 26
0.0
 36
0.0
 17
0.0
 27
1.0
 37
0.0
 76
     0
330
131B
331
1325
  0
MATERIAL
  5
1341
102
{ACAD_REACTORS
330
133F
102
}
330
133F
100
AcDbMaterial
  1
ByBlock
 72
     1
 94
      127
  0
MATERIAL
  5
1340
102
{ACAD_REACTORS
330
133F
102
}
330
133F
100
AcDbMaterial
  1
ByLayer
 72
     1
 94
      127
  0
MATERIAL
  5
1342
102
{ACAD_REACTORS
330
133F
102
}
330
133F
100
AcDbMaterial
  1
Global
 72
     1
 94
      127
  0
MLEADERSTYLE
  5
1368
102
{ACAD_REACTORS
330
1367
102
}
330
1367
100
AcDbMLeaderStyle
179
     2
170
     2
171
     1
172
     0
 90
        2
 40
0.0
 41
0.0
173
     1
 91
-1056964608
340
1310
 92
       -2
290
     1
 42
0.09
291
     1
 43
0.36
  3
Standard
341
0
 44
0.18
300

342
130E
174
     1
178
     6
175
     1
176
     0
 93
-1056964608
 45
0.18
292
     0
297
     0
 46
0.18
343
0
 94
-1056964608
 47
1.0
 49
1.0
140
1.0
293
     1
141
0.0
294
     1
177
     0
142
1.0
295
     0
296
     0
143
0.125
271
     0
272
     9
273
     9
  0
MLINESTYLE
  5
1314
102
{ACAD_REACTORS
330
1313
102
}
330
1313
100
AcDbMlineStyle
  2
Standard
 70
     0
  3

 62
   256
 51
90.0
 52
90.0
 71
     2
 49
0.5
 62
   256
  6
BYLAYER
 49
-0.5
 62
   256
  6
BYLAYER
  0
ACDBPLACEHOLDER
  5
130C
102
{ACAD_REACTORS
330
130B
102
}
330
130B
  0
SCALE
  5
1344
102
{ACAD_REACTORS
330
1343
102
}
330
1343
100
AcDbScale
 70
     0
300
1:1
140
1.0
141
1.0
290
     1
  0
SCALE
  5
1345
102
{ACAD_REACTORS
330
1343
102
}
330
1343
100
AcDbScale
 70
     0
300
1:2
140
1.0
141
2.0
290
     0
  0
SCALE
  5
1346
102
{ACAD_REACTORS
330
1343
102
}
330
1343
100
AcDbScale
 70
     0
300
1:4
140
1.0
141
4.0
290
     0
  0
SCALE
  5
1347
102
{ACAD_REACTORS
330
1343
102
}
330
1343
100
AcDbScale
 70
     0
300
1:5
140
1.0
141
5.0
290
     0
  0
SCALE
  5
1348
102
{ACAD_REACTORS
330
1343
102
}
330
1343
100
AcDbScale
 70
     0
300
1:8
140
1.0
141
8.0
290
     0
  0
SCALE
  5
1349
102
{ACAD_REACTORS
330
1343
102
}
330
1343
100
AcDbScale
 70
     0
300
1:10
140
1.0
141
10.0
290
     0
  0
SCALE
  5
134A
102
{ACAD_REACTORS
330
1343
102
}
330
1343
100
AcDbScale
 70
     0
300
1:16
140
1.0
141
16.0
290
     0
  0
SCALE
  5
134B
102
{ACAD_REACTORS
330
1343
102
}
330
1343
100
AcDbScale
 70
     0
300
1:20
140
1.0
141
20.0
290
     0
  0
SCALE
  5
134C
102
{ACAD_REACTORS
330
1343
102
}
330
1343
100
AcDbScale
 70
     0
300
1:30
140
1.0
141
30.0
290
     0
  0
SCALE
  5
134D
102
{ACAD_REACTORS
330
1343
102
}
330
1343
100
AcDbScale
 70
     0
300
1:40
140
1.0
141
40.0
290
     0
  0
SCALE
  5
134E
102
{ACAD_REACTORS
330
1343
102
}
330
1343
100
AcDbScale
 70
     0
300
1:50
140
1.0
141
50.0
290
     0
  0
SCALE
  5
134F
102
{ACAD_REACTORS
330
1343
102
}
330
1343
100
AcDbScale
 70
     0
300
1:100
140
1.0
141
100.0
290
     0
  0
SCALE
  5
1350
102
{ACAD_REACTORS
330
1343
102
}
330
1343
100
AcDbScale
 70
     0
300
2:1
140
2.0
141
1.0
290
     0
  0
SCALE
  5
1351
102
{ACAD_REACTORS
330
1343
102
}
330
1343
100
AcDbScale
 70
     0
300
4:1
140
4.0
141
1.0
290
     0
  0
SCALE
  5
1352
102
{ACAD_REACTORS
330
1343
102
}
330
1343
100
AcDbScale
 70
     0
300
8:1
140
8.0
141
1.0
290
     0
  0
SCALE
  5
1353
102
{ACAD_REACTORS
330
1343
102
}
330
1343
100
AcDbScale
 70
     0
300
10:1
140
10.0
141
1.0
290
     0
  0
SCALE
  5
1354
102
{ACAD_REACTORS
330
1343
102
}
330
1343
100
AcDbScale
 70
     0
300
100:1
140
100.0
141
1.0
290
     0
  0
SCALE
  5
1355
102
{ACAD_REACTORS
330
1343
102
}
330
1343
100
AcDbScale
 70
     0
300
1/128" = 1'-0"
140
0.0078125
141
12.0
290
     0
  0
SCALE
  5
1356
102
{ACAD_REACTORS
330
1343
102
}
330
1343
100
AcDbScale
 70
     0
300
1/64" = 1'-0"
140
0.015625
141
12.0
290
     0
  0
SCALE
  5
1357
102
{ACAD_REACTORS
330
1343
102
}
330
1343
100
AcDbScale
 70
     0
300
1/32" = 1'-0"
140
0.03125
141
12.0
290
     0
  0
SCALE
  5
1358
102
{ACAD_REACTORS
330
1343
102
}
330
1343
100
AcDbScale
 70
     0
300
1/16" = 1'-0"
140
0.0625
141
12.0
290
     0
  0
SCALE
  5
1359
102
{ACAD_REACTORS
330
1343
102
}
330
1343
100
AcDbScale
 70
     0
300
3/32" = 1'-0"
140
0.09375
141
12.0
290
     0
  0
SCALE
  5
135A
102
{ACAD_REACTORS
330
1343
102
}
330
1343
100
AcDbScale
 70
     0
300
1/8" = 1'-0"
140
0.125
141
12.0
290
     0
  0
SCALE
  5
135B
102
{ACAD_REACTORS
330
1343
102
}
330
1343
100
AcDbScale
 70
     0
300
3/16" = 1'-0"
140
0.1875
141
12.0
290
     0
  0
SCALE
  5
135C
102
{ACAD_REACTORS
330
1343
102
}
330
1343
100
AcDbScale
 70
     0
300
1/4" = 1'-0"
140
0.25
141
12.0
290
     0
  0
SCALE
  5
135D
102
{ACAD_REACTORS
330
1343
102
}
330
1343
100
AcDbScale
 70
     0
300
3/8" = 1'-0"
140
0.375
141
12.0
290
     0
  0
SCALE
  5
135E
102
{ACAD_REACTORS
330
1343
102
}
330
1343
100
AcDbScale
 70
     0
300
1/2" = 1'-0"
140
0.5
141
12.0
290
     0
  0
SCALE
  5
135F
102
{ACAD_REACTORS
330
1343
102
}
330
1343
100
AcDbScale
 70
     0
300
3/4" = 1'-0"
140
0.75
141
12.0
290
     0
  0
SCALE
  5
1360
102
{ACAD_REACTORS
330
1343
102
}
330
1343
100
AcDbScale
 70
     0
300
1" = 1'-0"
140
1.0
141
12.0
290
     0
  0
SCALE
  5
1361
102
{ACAD_REACTORS
330
1343
102
}
330
1343
100
AcDbScale
 70
     0
300
1-1/2" = 1'-0"
140
1.5
141
12.0
290
     0
  0
SCALE
  5
1362
102
{ACAD_REACTORS
330
1343
102
}
330
1343
100
AcDbScale
 70
     0
300
3" = 1'-0"
140
3.0
141
12.0
290
     0
  0
SCALE
  5
1363
102
{ACAD_REACTORS
330
1343
102
}
330
1343
100
AcDbScale
 70
     0
300
6" = 1'-0"
140
6.0
141
12.0
290
     0
  0
SCALE
  5
1364
102
{ACAD_REACTORS
330
1343
102
}
330
1343
100
AcDbScale
 70
     0
300
1'-0" = 1'-0"
140
12.0
141
12.0
290
     0
  0
TABLESTYLE
  5
1366
102
{ACAD_REACTORS
330
1365
102
}
102
{ACAD_XDICTIONARY
360
143B
102
}
330
1365
100
AcDbTableStyle
  3
Standard
 70
     0
 71
     0
 40
0.06
 41
0.06
280
     0
281
     0
  7
Standard
140
0.18
170
     2
 62
     0
 63
   257
283
     0
 90
        4
 91
        0
  1

274
    -2
284
     1
 64
     0
275
    -2
285
     1
 65
     0
276
    -2
286
     1
 66
     0
277
    -2
287
     1
 67
     0
278
    -2
288
     1
 68
     0
279
    -2
289
     1
 69
     0
  7
Standard
140
0.25
170
     5
 62
     0
 63
   257
283
     0
 90
        4
 91
        0
  1

274
    -2
284
     1
 64
     0
275
    -2
285
     1
 65
     0
276
    -2
286
     1
 66
     0
277
    -2
287
     1
 67
     0
278
    -2
288
     1
 68
     0
279
    -2
289
     1
 69
     0
  7
Standard
140
0.18
170
     5
 62
     0
 63
   257
283
     0
 90
        4
 91
        0
  1

274
    -2
284
     1
 64
     0
275
    -2
285
     1
 65
     0
276
    -2
286
     1
 66
     0
277
    -2
287
     1
 67
     0
278
    -2
288
     1
 68
     0
279
    -2
289
     1
 69
     0
  0
VISUALSTYLE
  5
132B
102
{ACAD_REACTORS
330
1326
102
}
102
{ACAD_XDICTIONARY
360
1413
102
}
330
1326
100
AcDbVisualStyle
  2
2dWireframe
 70
     4
177
     2
291
     0
 71
     0
176
     1
 72
     2
176
     1
 73
     0
176
     1
 90
        0
176
     1
 40
0.6
176
     1
 41
30.0
176
     1
 62
     5
 63
     7
421
 16777215
176
     1
 74
     1
176
     1
 91
        4
176
     1
 64
     7
176
     1
 65
   257
176
     1
 75
     1
176
     1
175
     1
176
     1
 42
1.0
176
     1
 92
        0
176
     1
 66
   257
176
     1
 43
1.0
176
     1
 76
     1
176
     1
 77
     6
176
     1
 78
     2
176
     1
 67
     7
176
     1
 79
     5
176
     1
170
     0
176
     1
171
     0
176
     1
290
     0
176
     1
 93
        1
176
     1
 44
0.0
176
     1
173
     0
176
     1
  0
VISUALSTYLE
  5
132E
102
{ACAD_REACTORS
330
1326
102
}
102
{ACAD_XDICTIONARY
360
1419
102
}
330
1326
100
AcDbVisualStyle
  2
Basic
 70
     7
177
     2
291
     1
 71
     1
176
     1
 72
     0
176
     1
 73
     1
176
     1
 90
        0
176
     1
 40
0.6
176
     1
 41
30.0
176
     1
 62
     5
 63
     7
421
 16777215
176
     1
 74
     0
176
     1
 91
        4
176
     1
 64
     7
176
     1
 65
   257
176
     1
 75
     1
176
     1
175
     1
176
     1
 42
1.0
176
     1
 92
        8
176
     1
 66
     7
176
     1
 43
1.0
176
     1
 76
     1
176
     1
 77
     6
176
     1
 78
     2
176
     1
 67
     7
176
     1
 79
     5
176
     1
170
     0
176
     1
171
     0
176
     1
290
     0
176
     1
 93
        1
176
     1
 44
0.0
176
     1
173
     0
176
     1
  0
VISUALSTYLE
  5
1332
102
{ACAD_REACTORS
330
1326
102
}
102
{ACAD_XDICTIONARY
360
1421
102
}
330
1326
100
AcDbVisualStyle
  2
Brighten
 70
    12
177
     2
291
     1
 71
     2
176
     1
 72
     2
176
     1
 73
     0
176
     1
 90
        0
176
     1
 40
0.6
176
     1
 41
30.0
176
     1
 62
     5
 63
     7
421
 16777215
176
     1
 74
     1
176
     1
 91
        4
176
     1
 64
     7
176
     1
 65
   257
176
     1
 75
     1
176
     1
175
     1
176
     1
 42
1.0
176
     1
 92
        8
176
     1
 66
     7
176
     1
 43
1.0
176
     1
 76
     1
176
     1
 77
     6
176
     1
 78
     2
176
     1
 67
     7
176
     1
 79
     5
176
     1
170
     0
176
     1
171
     0
176
     1
290
     0
176
     1
 93
        1
176
     1
 44
50.0
176
     1
173
     0
176
     1
  0
VISUALSTYLE
  5
1336
102
{ACAD_REACTORS
330
1326
102
}
102
{ACAD_XDICTIONARY
360
1429
102
}
330
1326
100
AcDbVisualStyle
  2
ColorChange
 70
    16
177
     2
291
     1
 71
     2
176
     1
 72
     2
176
     1
 73
     3
176
     1
 90
        0
176
     1
 40
0.6
176
     1
 41
30.0
176
     1
 62
     5
 63
     8
421
  8421504
176
     1
 74
     1
176
     1
 91
        4
176
     1
 64
     7
176
     1
 65
   257
176
     1
 75
     1
176
     1
175
     1
176
     1
 42
1.0
176
     1
 92
        8
176
     1
 66
     8
424
  8421504
176
     1
 43
1.0
176
     1
 76
     1
176
     1
 77
     6
176
     1
 78
     2
176
     1
 67
     7
176
     1
 79
     5
176
     1
170
     0
176
     1
171
     0
176
     1
290
     0
176
     1
 93
        1
176
     1
 44
0.0
176
     1
173
     0
176
     1
  0
VISUALSTYLE
  5
1330
102
{ACAD_REACTORS
330
1326
102
}
102
{ACAD_XDICTIONARY
360
141D
102
}
330
1326
100
AcDbVisualStyle
  2
Conceptual
 70
     9
177
     2
291
     0
 71
     3
176
     1
 72
     2
176
     1
 73
     0
176
     1
 90
        0
176
     1
 40
0.6
176
     1
 41
30.0
176
     1
 62
     5
 63
     7
421
 16777215
176
     1
 74
     2
176
     1
 91
        2
176
     1
 64
     7
176
     1
 65
   257
176
     1
 75
     1
176
     1
175
     1
176
     1
 42
179.0
176
     1
 92
        8
176
     1
 66
     7
176
     1
 43
1.0
176
     1
 76
     1
176
     1
 77
     6
176
     1
 78
     2
176
     1
 67
     7
176
     1
 79
     3
176
     1
170
     0
176
     1
171
     0
176
     1
290
     0
176
     1
 93
        1
176
     1
 44
0.0
176
     1
173
     0
176
     1
  0
VISUALSTYLE
  5
1331
102
{ACAD_REACTORS
330
1326
102
}
102
{ACAD_XDICTIONARY
360
141F
102
}
330
1326
100
AcDbVisualStyle
  2
Dim
 70
    11
177
     2
291
     1
 71
     2
176
     1
 72
     2
176
     1
 73
     0
176
     1
 90
        0
176
     1
 40
0.6
176
     1
 41
30.0
176
     1
 62
     5
 63
     7
421
 16777215
176
     1
 74
     1
176
     1
 91
        4
176
     1
 64
     7
176
     1
 65
   257
176
     1
 75
     1
176
     1
175
     1
176
     1
 42
1.0
176
     1
 92
        8
176
     1
 66
     7
176
     1
 43
1.0
176
     1
 76
     1
176
     1
 77
     6
176
     1
 78
     2
176
     1
 67
     7
176
     1
 79
     5
176
     1
170
     0
176
     1
171
     0
176
     1
290
     0
176
     1
 93
        1
176
     1
 44
-50.0
176
     1
173
     0
176
     1
  0
VISUALSTYLE
  5
1339
102
{ACAD_REACTORS
330
1326
102
}
102
{ACAD_XDICTIONARY
360
142F
102
}
330
1326
100
AcDbVisualStyle
  2
EdgeColorOff
 70
    22
177
     2
291
     1
 71
     2
176
     0
 72
     2
176
     0
 73
     0
176
     0
 90
        0
176
     0
 40
0.6
176
     0
 41
30.0
176
     0
 62
     5
 63
     7
421
 16777215
176
     0
 74
     1
176
     0
 91
        4
176
     0
 64
     7
176
     0
 65
   257
176
     0
 75
     1
176
     0
175
     1
176
     0
 42
1.0
176
     0
 92
        8
176
     2
 66
     7
176
     0
 43
1.0
176
     0
 76
     1
176
     0
 77
     6
176
     0
 78
     2
176
     0
 67
     7
176
     0
 79
     5
176
     0
170
     0
176
     0
171
     0
176
     0
290
     0
176
     0
 93
        1
176
     0
 44
0.0
176
     0
173
     0
176
     0
  0
VISUALSTYLE
  5
1335
102
{ACAD_REACTORS
330
1326
102
}
102
{ACAD_XDICTIONARY
360
1427
102
}
330
1326
100
AcDbVisualStyle
  2
Facepattern
 70
    15
177
     2
291
     1
 71
     2
176
     1
 72
     2
176
     1
 73
     0
176
     1
 90
        0
176
     1
 40
0.6
176
     1
 41
30.0
176
     1
 62
     5
 63
     7
421
 16777215
176
     1
 74
     1
176
     1
 91
        4
176
     1
 64
     7
176
     1
 65
   257
176
     1
 75
     1
176
     1
175
     1
176
     1
 42
1.0
176
     1
 92
        8
176
     1
 66
     7
176
     1
 43
1.0
176
     1
 76
     1
176
     1
 77
     6
176
     1
 78
     2
176
     1
 67
     7
176
     1
 79
     5
176
     1
170
     0
176
     1
171
     0
176
     1
290
     0
176
     1
 93
        1
176
     1
 44
0.0
176
     1
173
     0
176
     1
  0
VISUALSTYLE
  5
1327
102
{ACAD_REACTORS
330
1326
102
}
102
{ACAD_XDICTIONARY
360
140B
102
}
330
1326
100
AcDbVisualStyle
  2
Flat
 70
     0
177
     2
291
     1
 71
     2
176
     1
 72
     1
176
     1
 73
     1
176
     1
 90
        2
176
     1
 40
0.6
176
     1
 41
30.0
176
     1
 62
     5
 63
     7
421
 16777215
176
     1
 74
     0
176
     1
 91
        0
176
     1
 64
     7
176
     1
 65
   257
176
     1
 75
     1
176
     1
175
     1
176
     1
 42
1.0
176
     1
 92
        8
176
     1
 66
     7
176
     1
 43
1.0
176
     1
 76
     1
176
     1
 77
     6
176
     1
 78
     2
176
     1
 67
     7
176
     1
 79
     5
176
     1
170
     0
176
     1
171
     0
176
     1
290
     0
176
     1
 93
       13
176
     1
 44
0.0
176
     1
173
     0
176
     1
  0
VISUALSTYLE
  5
1328
102
{ACAD_REACTORS
330
1326
102
}
102
{ACAD_XDICTIONARY
360
140D
102
}
330
1326
100
AcDbVisualStyle
  2
FlatWithEdges
 70
     1
177
     2
291
     1
 71
     2
176
     1
 72
     1
176
     1
 73
     1
176
     1
 90
        2
176
     1
 40
0.6
176
     1
 41
30.0
176
     1
 62
     5
 63
     7
421
 16777215
176
     1
 74
     1
176
     1
 91
        0
176
     1
 64
     7
176
     1
 65
   257
176
     1
 75
     1
176
     1
175
     1
176
     1
 42
1.0
176
     1
 92
        0
176
     1
 66
   257
176
     1
 43
1.0
176
     1
 76
     1
176
     1
 77
     6
176
     1
 78
     2
176
     1
 67
     7
176
     1
 79
     5
176
     1
170
     0
176
     1
171
     0
176
     1
290
     0
176
     1
 93
       13
176
     1
 44
0.0
176
     1
173
     0
176
     1
  0
VISUALSTYLE
  5
1329
102
{ACAD_REACTORS
330
1326
102
}
102
{ACAD_XDICTIONARY
360
140F
102
}
330
1326
100
AcDbVisualStyle
  2
Gouraud
 70
     2
177
     2
291
     1
 71
     2
176
     1
 72
     2
176
     1
 73
     1
176
     1
 90
        2
176
     1
 40
0.6
176
     1
 41
30.0
176
     1
 62
     5
 63
     7
421
 16777215
176
     1
 74
     0
176
     1
 91
        0
176
     1
 64
     7
176
     1
 65
   257
176
     1
 75
     1
176
     1
175
     1
176
     1
 42
1.0
176
     1
 92
        0
176
     1
 66
     7
176
     1
 43
1.0
176
     1
 76
     1
176
     1
 77
     6
176
     1
 78
     2
176
     1
 67
     7
176
     1
 79
     5
176
     1
170
     0
176
     1
171
     0
176
     1
290
     0
176
     1
 93
       13
176
     1
 44
0.0
176
     1
173
     0
176
     1
  0
VISUALSTYLE
  5
132A
102
{ACAD_REACTORS
330
1326
102
}
102
{ACAD_XDICTIONARY
360
1411
102
}
330
1326
100
AcDbVisualStyle
  2
GouraudWithEdges
 70
     3
177
     2
291
     1
 71
     2
176
     1
 72
     2
176
     1
 73
     1
176
     1
 90
        2
176
     1
 40
0.6
176
     1
 41
30.0
176
     1
 62
     5
 63
     7
421
 16777215
176
     1
 74
     1
176
     1
 91
        0
176
     1
 64
     7
176
     1
 65
   257
176
     1
 75
     1
176
     1
175
     1
176
     1
 42
1.0
176
     1
 92
        0
176
     1
 66
   257
176
     1
 43
1.0
176
     1
 76
     1
176
     1
 77
     6
176
     1
 78
     2
176
     1
 67
     7
176
     1
 79
     5
176
     1
170
     0
176
     1
171
     0
176
     1
290
     0
176
     1
 93
       13
176
     1
 44
0.0
176
     1
173
     0
176
     1
  0
VISUALSTYLE
  5
132D
102
{ACAD_REACTORS
330
1326
102
}
102
{ACAD_XDICTIONARY
360
1417
102
}
330
1326
100
AcDbVisualStyle
  2
Hidden
 70
     6
177
     2
291
     0
 71
     1
176
     1
 72
     2
176
     1
 73
     2
176
     1
 90
        0
176
     1
 40
0.6
176
     1
 41
30.0
176
     1
 62
     5
 63
     7
421
 16777215
176
     1
 74
     2
176
     1
 91
        2
176
     1
 64
     7
176
     1
 65
   257
176
     1
 75
     2
176
     1
175
     1
176
     1
 42
40.0
176
     1
 92
        0
176
     1
 66
   257
176
     1
 43
1.0
176
     1
 76
     1
176
     1
 77
     6
176
     1
 78
     2
176
     1
 67
     7
176
     1
 79
     3
176
     1
170
     0
176
     1
171
     0
176
     1
290
     0
176
     1
 93
        1
176
     1
 44
0.0
176
     1
173
     0
176
     1
  0
VISUALSTYLE
  5
1337
102
{ACAD_REACTORS
330
1326
102
}
102
{ACAD_XDICTIONARY
360
142B
102
}
330
1326
100
AcDbVisualStyle
  2
JitterOff
 70
    20
177
     2
291
     1
 71
     2
176
     0
 72
     2
176
     0
 73
     0
176
     0
 90
        0
176
     0
 40
0.6
176
     0
 41
30.0
176
     0
 62
     5
 63
     7
421
 16777215
176
     0
 74
     1
176
     0
 91
        4
176
     0
 64
     7
176
     0
 65
   257
176
     0
 75
     1
176
     0
175
     1
176
     0
 42
1.0
176
     0
 92
       10
176
     2
 66
     7
176
     0
 43
1.0
176
     0
 76
     1
176
     0
 77
     6
176
     0
 78
     2
176
     0
 67
     7
176
     0
 79
     5
176
     0
170
     0
176
     0
171
     0
176
     0
290
     0
176
     0
 93
        1
176
     0
 44
0.0
176
     0
173
     0
176
     0
  0
VISUALSTYLE
  5
1334
102
{ACAD_REACTORS
330
1326
102
}
102
{ACAD_XDICTIONARY
360
1425
102
}
330
1326
100
AcDbVisualStyle
  2
Linepattern
 70
    14
177
     2
291
     1
 71
     2
176
     1
 72
     2
176
     1
 73
     0
176
     1
 90
        0
176
     1
 40
0.6
176
     1
 41
30.0
176
     1
 62
     5
 63
     7
421
 16777215
176
     1
 74
     1
176
     1
 91
        4
176
     1
 64
     7
176
     1
 65
   257
176
     1
 75
     7
176
     1
175
     7
176
     1
 42
1.0
176
     1
 92
        8
176
     1
 66
     7
176
     1
 43
1.0
176
     1
 76
     1
176
     1
 77
     6
176
     1
 78
     2
176
     1
 67
     7
176
     1
 79
     5
176
     1
170
     0
176
     1
171
     0
176
     1
290
     0
176
     1
 93
        1
176
     1
 44
0.0
176
     1
173
     0
176
     1
  0
VISUALSTYLE
  5
1338
102
{ACAD_REACTORS
330
1326
102
}
102
{ACAD_XDICTIONARY
360
142D
102
}
330
1326
100
AcDbVisualStyle
  2
OverhangOff
 70
    21
177
     2
291
     1
 71
     2
176
     0
 72
     2
176
     0
 73
     0
176
     0
 90
        0
176
     0
 40
0.6
176
     0
 41
30.0
176
     0
 62
     5
 63
     7
421
 16777215
176
     0
 74
     1
176
     0
 91
        4
176
     0
 64
     7
176
     0
 65
   257
176
     0
 75
     1
176
     0
175
     1
176
     0
 42
1.0
176
     0
 92
        9
176
     2
 66
     7
176
     0
 43
1.0
176
     0
 76
     1
176
     0
 77
     6
176
     0
 78
     2
176
     0
 67
     7
176
     0
 79
     5
176
     0
170
     0
176
     0
171
     0
176
     0
290
     0
176
     0
 93
        1
176
     0
 44
0.0
176
     0
173
     0
176
     0
  0
VISUALSTYLE
  5
132F
102
{ACAD_REACTORS
330
1326
102
}
102
{ACAD_XDICTIONARY
360
141B
102
}
330
1326
100
AcDbVisualStyle
  2
Realistic
 70
     8
177
     2
291
     0
 71
     2
176
     1
 72
     3
176
     1
 73
     0
176
     1
 90
        2
176
     1
 40
0.6
176
     1
 41
30.0
176
     1
 62
     5
 63
     7
421
 16777215
176
     1
 74
     0
176
     1
 91
        0
176
     1
 64
     7
176
     1
 65
   257
176
     1
 75
     1
176
     1
175
     1
176
     1
 42
1.0
176
     1
 92
        8
176
     1
 66
   257
176
     1
 43
1.0
176
     1
 76
     1
176
     1
 77
     6
176
     1
 78
     2
176
     1
 67
     7
176
     1
 79
     3
176
     1
170
     0
176
     1
171
     0
176
     1
290
     0
176
     1
 93
       13
176
     1
 44
0.0
176
     1
173
     0
176
     1
  0
VISUALSTYLE
  5
133E
102
{ACAD_REACTORS
330
1326
102
}
102
{ACAD_XDICTIONARY
360
1439
102
}
330
1326
100
AcDbVisualStyle
  2
Shaded
 70
    27
177
     2
291
     0
 71
     2
176
     1
 72
     2
176
     1
 73
     1
176
     1
 90
        2
176
     1
 40
0.6
176
     1
 41
30.0
176
     1
 62
     5
 63
     7
421
 16777215
176
     1
 74
     0
176
     1
 91
        4
176
     1
 64
     7
176
     1
 65
   257
176
     1
 75
     1
176
     1
175
     1
176
     1
 42
1.0
176
     1
 92
        8
176
     1
 66
   257
176
     1
 43
1.0
176
     1
 76
     1
176
     1
 77
     6
176
     1
 78
     2
176
     1
 67
     8
425
  7895160
176
     1
 79
     3
176
     1
170
     0
176
     1
171
     0
176
     1
290
     0
176
     1
 93
        5
176
     1
 44
0.0
176
     1
173
     0
176
     1
  0
VISUALSTYLE
  5
133D
102
{ACAD_REACTORS
330
1326
102
}
102
{ACAD_XDICTIONARY
360
1437
102
}
330
1326
100
AcDbVisualStyle
  2
Shaded with edges
 70
    26
177
     2
291
     0
 71
     2
176
     1
 72
     2
176
     1
 73
     1
176
     1
 90
        2
176
     1
 40
0.6
176
     1
 41
30.0
176
     1
 62
     5
 63
     7
421
 16777215
176
     1
 74
     1
176
     1
 91
       10
176
     1
 64
     7
176
     1
 65
   257
176
     1
 75
     2
176
     1
175
     1
176
     1
 42
1.0
176
     1
 92
        8
176
     1
 66
   257
176
     1
 43
1.0
176
     1
 76
     1
176
     1
 77
     6
176
     1
 78
     2
176
     1
 67
     7
176
     1
 79
     3
176
     1
170
     0
176
     1
171
     0
176
     1
290
     0
176
     1
 93
        5
176
     1
 44
0.0
176
     1
173
     0
176
     1
  0
VISUALSTYLE
  5
133A
102
{ACAD_REACTORS
330
1326
102
}
102
{ACAD_XDICTIONARY
360
1431
102
}
330
1326
100
AcDbVisualStyle
  2
Shades of Gray
 70
    23
177
     2
291
     0
 71
     2
176
     1
 72
     2
176
     1
 73
     3
176
     1
 90
        0
176
     1
 40
0.6
176
     1
 41
30.0
176
     1
 62
     5
 63
     7
421
 16777215
176
     1
 74
     2
176
     1
 91
        2
176
     1
 64
     7
176
     1
 65
     7
176
     1
 75
     1
176
     1
175
     1
176
     1
 42
40.0
176
     1
 92
        8
176
     1
 66
     7
176
     1
 43
1.0
176
     1
 76
     1
176
     1
 77
     6
176
     1
 78
     2
176
     1
 67
     7
176
     1
 79
     3
176
     1
170
     0
176
     1
171
     0
176
     1
290
     0
176
     1
 93
        1
176
     1
 44
0.0
176
     1
173
     0
176
     1
  0
VISUALSTYLE
  5
133B
102
{ACAD_REACTORS
330
1326
102
}
102
{ACAD_XDICTIONARY
360
1433
102
}
330
1326
100
AcDbVisualStyle
  2
Sketchy
 70
    24
177
     2
291
     0
 71
     1
176
     1
 72
     2
176
     1
 73
     2
176
     1
 90
        0
176
     1
 40
0.6
176
     1
 41
30.0
176
     1
 62
     5
 63
     7
421
 16777215
176
     1
 74
     2
176
     1
 91
        2
176
     1
 64
     7
176
     1
 65
     7
176
     1
 75
     1
176
     1
175
     1
176
     1
 42
40.0
176
     1
 92
       11
176
     1
 66
     7
176
     1
 43
1.0
176
     1
 76
     1
176
     1
 77
     6
176
     1
 78
     2
176
     1
 67
     7
176
     1
 79
     6
176
     1
170
     0
176
     1
171
     0
176
     1
290
     0
176
     1
 93
        1
176
     1
 44
0.0
176
     1
173
     0
176
     1
  0
VISUALSTYLE
  5
1333
102
{ACAD_REACTORS
330
1326
102
}
102
{ACAD_XDICTIONARY
360
1423
102
}
330
1326
100
AcDbVisualStyle
  2
Thicken
 70
    13
177
     2
291
     1
 71
     2
176
     1
 72
     2
176
     1
 73
     0
176
     1
 90
        0
176
     1
 40
0.6
176
     1
 41
30.0
176
     1
 62
     5
 63
     7
421
 16777215
176
     1
 74
     1
176
     1
 91
        4
176
     1
 64
     7
176
     1
 65
   257
176
     1
 75
     1
176
     1
175
     1
176
     1
 42
1.0
176
     1
 92
       12
176
     1
 66
     7
176
     1
 43
1.0
176
     1
 76
     1
176
     1
 77
     6
176
     1
 78
     2
176
     1
 67
     7
176
     1
 79
     5
176
     1
170
     0
176
     1
171
     0
176
     1
290
     0
176
     1
 93
        1
176
     1
 44
0.0
176
     1
173
     0
176
     1
  0
VISUALSTYLE
  5
132C
102
{ACAD_REACTORS
330
1326
102
}
102
{ACAD_XDICTIONARY
360
1415
102
}
330
1326
100
AcDbVisualStyle
  2
Wireframe
 70
     5
177
     2
291
     0
 71
     0
176
     1
 72
     2
176
     1
 73
     0
176
     1
 90
        0
176
     1
 40
0.6
176
     1
 41
30.0
176
     1
 62
     5
 63
     7
421
 16777215
176
     1
 74
     1
176
     1
 91
        4
176
     1
 64
     7
176
     1
 65
   257
176
     1
 75
     1
176
     1
175
     1
176
     1
 42
1.0
176
     1
 92
        0
176
     1
 66
   257
176
     1
 43
1.0
176
     1
 76
     1
176
     1
 77
     6
176
     1
 78
     2
176
     1
 67
     7
176
     1
 79
     3
176
     1
170
     0
176
     1
171
     0
176
     1
290
     0
176
     1
 93
        1
176
     1
 44
0.0
176
     1
173
     0
176
     1
  0
VISUALSTYLE
  5
133C
102
{ACAD_REACTORS
330
1326
102
}
102
{ACAD_XDICTIONARY
360
1435
102
}
330
1326
100
AcDbVisualStyle
  2
X-Ray
 70
    25
177
     2
291
     0
 71
     2
176
     1
 72
     2
176
     1
 73
     1
176
     1
 90
        1
176
     1
 40
0.5
176
     1
 41
30.0
176
     1
 62
     5
 63
     7
421
 16777215
176
     1
 74
     1
176
     1
 91
        0
176
     1
 64
     7
176
     1
 65
   257
176
     1
 75
     1
176
     1
175
     1
176
     1
 42
1.0
176
     1
 92
        8
176
     1
 66
     7
176
     1
 43
1.0
176
     1
 76
     1
176
     1
 77
     6
176
     1
 78
     2
176
     1
 67
     7
176
     1
 79
     3
176
     1
170
     0
176
     1
171
     0
176
     1
290
     0
176
     1
 93
       13
176
     1
 44
0.0
176
     1
173
     0
176
     1
  0
DICTIONARYVAR
  5
140A
102
{ACAD_REACTORS
330
1409
102
}
330
1409
100
DictionaryVariables
280
     0
  1
1:1
  0
DICTIONARYVAR
  5
143F
102
{ACAD_REACTORS
330
1409
102
}
330
1409
100
DictionaryVariables
280
     0
  1
Standard
  0
DICTIONARYVAR
  5
143E
102
{ACAD_REACTORS
330
1409
102
}
330
1409
100
DictionaryVariables
280
     0
  1
Standard
  0
XRECORD
  5
136D
102
{ACAD_REACTORS
330
136B
102
}
330
136B
100
AcDbXrecord
280
     1
1000
#ffffff
  0
XRECORD
  5
136E
102
{ACAD_REACTORS
330
136B
102
}
330
136B
100
AcDbXrecord
280
     1
1000
FullColor
  0
XRECORD
  5
136F
102
{ACAD_REACTORS
330
136B
102
}
330
136B
100
AcDbXrecord
280
     1
290
     1
  0
XRECORD
  5
1370
102
{ACAD_REACTORS
330
136B
102
}
330
136B
100
AcDbXrecord
280
     1
290
     1
  0
XRECORD
  5
1371
102
{ACAD_REACTORS
330
136B
102
}
330
136B
100
AcDbXrecord
280
     1
290
     1
  0
XRECORD
  5
1372
102
{ACAD_REACTORS
330
136B
102
}
330
136B
100
AcDbXrecord
280
     1
290
     1
  0
XRECORD
  5
1373
102
{ACAD_REACTORS
330
136B
102
}
330
136B
100
AcDbXrecord
280
     1
1000
auto
  0
XRECORD
  5
1374
102
{ACAD_REACTORS
330
136B
102
}
330
136B
100
AcDbXrecord
280
     1
1000
auto
  0
XRECORD
  5
1375
102
{ACAD_REACTORS
330
136B
102
}
330
136B
100
AcDbXrecord
280
     1
1000
auto
  0
XRECORD
  5
1376
102
{ACAD_REACTORS
330
136B
102
}
330
136B
100
AcDbXrecord
280
     1
1000
auto
  0
XRECORD
  5
1377
102
{ACAD_REACTORS
330
136B
102
}
330
136B
100
AcDbXrecord
280
     1
1000
auto
  0
XRECORD
  5
1378
102
{ACAD_REACTORS
330
136B
102
}
330
136B
100
AcDbXrecord
280
     1
1000
auto
  0
XRECORD
  5
1379
102
{ACAD_REACTORS
330
136B
102
}
330
136B
100
AcDbXrecord
280
     1
1000
auto
  0
XRECORD
  5
137A
102
{ACAD_REACTORS
330
136B
102
}
330
136B
100
AcDbXrecord
280
     1
1000
auto
  0
XRECORD
  5
137B
102
{ACAD_REACTORS
330
136B
102
}
330
136B
100
AcDbXrecord
280
     1
290
     0
  0
XRECORD
  5
137C
102
{ACAD_REACTORS
330
136B
102
}
330
136B
100
AcDbXrecord
280
     1
290
     0
  0
XRECORD
  5
137D
102
{ACAD_REACTORS
330
136B
102
}
330
136B
100
AcDbXrecord
280
     1
290
     0
  0
XRECORD
  5
137E
102
{ACAD_REACTORS
330
136B
102
}
330
136B
100
AcDbXrecord
280
     1
290
     0
  0
XRECORD
  5
137F
102
{ACAD_REACTORS
330
136B
102
}
330
136B
100
AcDbXrecord
280
     1
 90
        0
  0
XRECORD
  5
1380
102
{ACAD_REACTORS
330
136B
102
}
330
136B
100
AcDbXrecord
280
     1
 90
        0
  0
XRECORD
  5
1381
102
{ACAD_REACTORS
330
136B
102
}
330
136B
100
AcDbXrecord
280
     1
 90
        0
  0
XRECORD
  5
1382
102
{ACAD_REACTORS
330
136B
102
}
330
136B
100
AcDbXrecord
280
     1
 90
        0
  0
XRECORD
  5
1383
102
{ACAD_REACTORS
330
136B
102
}
330
136B
100
AcDbXrecord
280
     1
1000
auto
  0
XRECORD
  5
1384
102
{ACAD_REACTORS
330
136B
102
}
330
136B
100
AcDbXrecord
280
     1
1000
auto
  0
XRECORD
  5
1385
102
{ACAD_REACTORS
330
136B
102
}
330
136B
100
AcDbXrecord
280
     1
1000
auto
  0
XRECORD
  5
1386
102
{ACAD_REACTORS
330
136B
102
}
330
136B
100
AcDbXrecord
280
     1
1000
auto
  0
XRECORD
  5
1387
102
{ACAD_REACTORS
330
136B
102
}
330
136B
100
AcDbXrecord
280
     1
1000
auto
  0
XRECORD
  5
1388
102
{ACAD_REACTORS
330
136B
102
}
330
136B
100
AcDbXrecord
280
     1
1000
auto
  0
XRECORD
  5
1389
102
{ACAD_REACTORS
330
136B
102
}
330
136B
100
AcDbXrecord
280
     1
1000
auto
  0
XRECORD
  5
138A
102
{ACAD_REACTORS
330
136B
102
}
330
136B
100
AcDbXrecord
280
     1
1000
auto
  0
XRECORD
  5
138B
102
{ACAD_REACTORS
330
136B
102
}
330
136B
100
AcDbXrecord
280
     1
 90
        1
  0
XRECORD
  5
138C
102
{ACAD_REACTORS
330
136B
102
}
330
136B
100
AcDbXrecord
280
     1
 40
10.0
  0
XRECORD
  5
138D
102
{ACAD_REACTORS
330
136B
102
}
330
136B
100
AcDbXrecord
280
     1
 40
10.0
  0
XRECORD
  5
138E
102
{ACAD_REACTORS
330
136B
102
}
330
136B
100
AcDbXrecord
280
     1
 40
10.0
  0
XRECORD
  5
138F
102
{ACAD_REACTORS
330
136B
102
}
330
136B
100
AcDbXrecord
280
     1
 40
10.0
  0
XRECORD
  5
1390
102
{ACAD_REACTORS
330
136B
102
}
330
136B
100
AcDbXrecord
280
     1
290
     0
  0
XRECORD
  5
1391
102
{ACAD_REACTORS
330
136B
102
}
330
136B
100
AcDbXrecord
280
     1
 90
        1
  0
XRECORD
  5
1392
102
{ACAD_REACTORS
330
136B
102
}
330
136B
100
AcDbXrecord
280
     1
 40
603.4763852484475
  0
XRECORD
  5
1393
102
{ACAD_REACTORS
330
136B
102
}
330
136B
100
AcDbXrecord
280
     1
 40
-720.1456962012599
  0
XRECORD
  5
1394
102
{ACAD_REACTORS
330
136B
102
}
330
136B
100
AcDbXrecord
280
     1
1000
Portrait
  0
XRECORD
  5
1395
102
{ACAD_REACTORS
330
136B
102
}
330
136B
100
AcDbXrecord
280
     1
 40
297.0
  0
XRECORD
  5
1396
102
{ACAD_REACTORS
330
136B
102
}
330
136B
100
AcDbXrecord
280
     1
 40
210.0
  0
XRECORD
  5
1397
102
{ACAD_REACTORS
330
136B
102
}
330
136B
100
AcDbXrecord
280
     1
1000
1:5
  0
XRECORD
  5
1398
102
{ACAD_REACTORS
330
136B
102
}
330
136B
100
AcDbXrecord
280
     1
290
     1
  0
XRECORD
  5
1399
102
{ACAD_REACTORS
330
136B
102
}
330
136B
100
AcDbXrecord
280
     1
1000
3.9.1
  0
XRECORD
  5
139A
102
{ACAD_REACTORS
330
136B
102
}
330
136B
100
AcDbXrecord
280
     1
 90
        4
  0
DICTIONARY
  5
143B
330
1366
100
AcDbDictionary
280
     1
281
     1
  3
ACAD_ROUNDTRIP_2008_TABLESTYLE_CELLSTYLEMAP
360
143C
  0
DICTIONARY
  5
1413
330
132B
100
AcDbDictionary
280
     1
281
     1
  3
ACAD_XREC_ROUNDTRIP
360
1414
  0
DICTIONARY
  5
1419
330
132E
100
AcDbDictionary
280
     1
281
     1
  3
ACAD_XREC_ROUNDTRIP
360
141A
  0
DICTIONARY
  5
1421
330
1332
100
AcDbDictionary
280
     1
281
     1
  3
ACAD_XREC_ROUNDTRIP
360
1422
  0
DICTIONARY
  5
1429
330
1336
100
AcDbDictionary
280
     1
281
     1
  3
ACAD_XREC_ROUNDTRIP
360
142A
  0
DICTIONARY
  5
141D
330
1330
100
AcDbDictionary
280
     1
281
     1
  3
ACAD_XREC_ROUNDTRIP
360
141E
  0
DICTIONARY
  5
141F
330
1331
100
AcDbDictionary
280
     1
281
     1
  3
ACAD_XREC_ROUNDTRIP
360
1420
  0
DICTIONARY
  5
142F
330
1339
100
AcDbDictionary
280
     1
281
     1
  3
ACAD_XREC_ROUNDTRIP
360
1430
  0
DICTIONARY
  5
1427
330
1335
100
AcDbDictionary
280
     1
281
     1
  3
ACAD_XREC_ROUNDTRIP
360
1428
  0
DICTIONARY
  5
140B
330
1327
100
AcDbDictionary
280
     1
281
     1
  3
ACAD_XREC_ROUNDTRIP
360
140C
  0
DICTIONARY
  5
140D
330
1328
100
AcDbDictionary
280
     1
281
     1
  3
ACAD_XREC_ROUNDTRIP
360
140E
  0
DICTIONARY
  5
140F
330
1329
100
AcDbDictionary
280
     1
281
     1
  3
ACAD_XREC_ROUNDTRIP
360
1410
  0
DICTIONARY
  5
1411
330
132A
100
AcDbDictionary
280
     1
281
     1
  3
ACAD_XREC_ROUNDTRIP
360
1412
  0
DICTIONARY
  5
1417
330
132D
100
AcDbDictionary
280
     1
281
     1
  3
ACAD_XREC_ROUNDTRIP
360
1418
  0
DICTIONARY
  5
142B
330
1337
100
AcDbDictionary
280
     1
281
     1
  3
ACAD_XREC_ROUNDTRIP
360
142C
  0
DICTIONARY
  5
1425
330
1334
100
AcDbDictionary
280
     1
281
     1
  3
ACAD_XREC_ROUNDTRIP
360
1426
  0
DICTIONARY
  5
142D
330
1338
100
AcDbDictionary
280
     1
281
     1
  3
ACAD_XREC_ROUNDTRIP
360
142E
  0
DICTIONARY
  5
141B
330
132F
100
AcDbDictionary
280
     1
281
     1
  3
ACAD_XREC_ROUNDTRIP
360
141C
  0
DICTIONARY
  5
1439
330
133E
100
AcDbDictionary
280
     1
281
     1
  3
ACAD_XREC_ROUNDTRIP
360
143A
  0
DICTIONARY
  5
1437
330
133D
100
AcDbDictionary
280
     1
281
     1
  3
ACAD_XREC_ROUNDTRIP
360
1438
  0
DICTIONARY
  5
1431
330
133A
100
AcDbDictionary
280
     1
281
     1
  3
ACAD_XREC_ROUNDTRIP
360
1432
  0
DICTIONARY
  5
1433
330
133B
100
AcDbDictionary
280
     1
281
     1
  3
ACAD_XREC_ROUNDTRIP
360
1434
  0
DICTIONARY
  5
1423
330
1333
100
AcDbDictionary
280
     1
281
     1
  3
ACAD_XREC_ROUNDTRIP
360
1424
  0
DICTIONARY
  5
1415
330
132C
100
AcDbDictionary
280
     1
281
     1
  3
ACAD_XREC_ROUNDTRIP
360
1416
  0
DICTIONARY
  5
1435
330
133C
100
AcDbDictionary
280
     1
281
     1
  3
ACAD_XREC_ROUNDTRIP
360
1436
  0
CELLSTYLEMAP
  5
143C
102
{ACAD_REACTORS
330
143B
102
}
330
143B
100
AcDbCellStyleMap
 90
        3
300
CELLSTYLE
  1
TABLEFORMAT_BEGIN
 90
        5
170
     1
 91
        0
 92
    32768
 62
   257
 93
        1
300
CONTENTFORMAT
  1
CONTENTFORMAT_BEGIN
 90
        0
 91
        0
 92
        4
 93
        0
300

 40
0.0
140
1.0
 94
        5
 62
     0
340
130E
144
0.25
309
CONTENTFORMAT_END
171
     1
301
MARGIN
  1
CELLMARGIN_BEGIN
 40
0.06
 40
0.06
 40
0.06
 40
0.06
 40
0.06
 40
0.06
309
CELLMARGIN_END
 94
        6
 95
        1
302
GRIDFORMAT
  1
GRIDFORMAT_BEGIN
 90
        0
 91
        1
 62
     0
 92
       -2
340
1310
 93
        0
 40
0.045
309
GRIDFORMAT_END
 95
        2
302
GRIDFORMAT
  1
GRIDFORMAT_BEGIN
 90
        0
 91
        1
 62
     0
 92
       -2
340
1310
 93
        0
 40
0.045
309
GRIDFORMAT_END
 95
        4
302
GRIDFORMAT
  1
GRIDFORMAT_BEGIN
 90
        0
 91
        1
 62
     0
 92
       -2
340
1310
 93
        0
 40
0.045
309
GRIDFORMAT_END
 95
        8
302
GRIDFORMAT
  1
GRIDFORMAT_BEGIN
 90
        0
 91
        1
 62
     0
 92
       -2
340
1310
 93
        0
 40
0.045
309
GRIDFORMAT_END
 95
       16
302
GRIDFORMAT
  1
GRIDFORMAT_BEGIN
 90
        0
 91
        1
 62
     0
 92
       -2
340
1310
 93
        0
 40
0.045
309
GRIDFORMAT_END
 95
       32
302
GRIDFORMAT
  1
GRIDFORMAT_BEGIN
 90
        0
 91
        1
 62
     0
 92
       -2
340
1310
 93
        0
 40
0.045
309
GRIDFORMAT_END
309
TABLEFORMAT_END
  1
CELLSTYLE_BEGIN
 90
        1
 91
        1
300
_TITLE
309
CELLSTYLE_END
300
CELLSTYLE
  1
TABLEFORMAT_BEGIN
 90
        5
170
     1
 91
        0
 92
        0
 62
   257
 93
        1
300
CONTENTFORMAT
  1
CONTENTFORMAT_BEGIN
 90
        0
 91
        0
 92
        4
 93
        0
300

 40
0.0
140
1.0
 94
        5
 62
     0
340
130E
144
0.18
309
CONTENTFORMAT_END
171
     1
301
MARGIN
  1
CELLMARGIN_BEGIN
 40
0.06
 40
0.06
 40
0.06
 40
0.06
 40
0.06
 40
0.06
309
CELLMARGIN_END
 94
        6
 95
        1
302
GRIDFORMAT
  1
GRIDFORMAT_BEGIN
 90
        0
 91
        1
 62
     0
 92
       -2
340
1310
 93
        0
 40
0.045
309
GRIDFORMAT_END
 95
        2
302
GRIDFORMAT
  1
GRIDFORMAT_BEGIN
 90
        0
 91
        1
 62
     0
 92
       -2
340
1310
 93
        0
 40
0.045
309
GRIDFORMAT_END
 95
        4
302
GRIDFORMAT
  1
GRIDFORMAT_BEGIN
 90
        0
 91
        1
 62
     0
 92
       -2
340
1310
 93
        0
 40
0.045
309
GRIDFORMAT_END
 95
        8
302
GRIDFORMAT
  1
GRIDFORMAT_BEGIN
 90
        0
 91
        1
 62
     0
 92
       -2
340
1310
 93
        0
 40
0.045
309
GRIDFORMAT_END
 95
       16
302
GRIDFORMAT
  1
GRIDFORMAT_BEGIN
 90
        0
 91
        1
 62
     0
 92
       -2
340
1310
 93
        0
 40
0.045
309
GRIDFORMAT_END
 95
       32
302
GRIDFORMAT
  1
GRIDFORMAT_BEGIN
 90
        0
 91
        1
 62
     0
 92
       -2
340
1310
 93
        0
 40
0.045
309
GRIDFORMAT_END
309
TABLEFORMAT_END
  1
CELLSTYLE_BEGIN
 90
        2
 91
        1
300
_HEADER
309
CELLSTYLE_END
300
CELLSTYLE
  1
TABLEFORMAT_BEGIN
 90
        5
170
     1
 91
        0
 92
        0
 62
   257
 93
        1
300
CONTENTFORMAT
  1
CONTENTFORMAT_BEGIN
 90
        0
 91
        0
 92
        4
 93
        0
300

 40
0.0
140
1.0
 94
        2
 62
     0
340
130E
144
0.18
309
CONTENTFORMAT_END
171
     1
301
MARGIN
  1
CELLMARGIN_BEGIN
 40
0.06
 40
0.06
 40
0.06
 40
0.06
 40
0.06
 40
0.06
309
CELLMARGIN_END
 94
        6
 95
        1
302
GRIDFORMAT
  1
GRIDFORMAT_BEGIN
 90
        0
 91
        1
 62
     0
 92
       -2
340
1310
 93
        0
 40
0.045
309
GRIDFORMAT_END
 95
        2
302
GRIDFORMAT
  1
GRIDFORMAT_BEGIN
 90
        0
 91
        1
 62
     0
 92
       -2
340
1310
 93
        0
 40
0.045
309
GRIDFORMAT_END
 95
        4
302
GRIDFORMAT
  1
GRIDFORMAT_BEGIN
 90
        0
 91
        1
 62
     0
 92
       -2
340
1310
 93
        0
 40
0.045
309
GRIDFORMAT_END
 95
        8
302
GRIDFORMAT
  1
GRIDFORMAT_BEGIN
 90
        0
 91
        1
 62
     0
 92
       -2
340
1310
 93
        0
 40
0.045
309
GRIDFORMAT_END
 95
       16
302
GRIDFORMAT
  1
GRIDFORMAT_BEGIN
 90
        0
 91
        1
 62
     0
 92
       -2
340
1310
 93
        0
 40
0.045
309
GRIDFORMAT_END
 95
       32
302
GRIDFORMAT
  1
GRIDFORMAT_BEGIN
 90
        0
 91
        1
 62
     0
 92
       -2
340
1310
 93
        0
 40
0.045
309
GRIDFORMAT_END
309
TABLEFORMAT_END
  1
CELLSTYLE_BEGIN
 90
        3
 91
        2
300
_DATA
309
CELLSTYLE_END
  0
XRECORD
  5
1414
102
{ACAD_REACTORS
330
1413
102
}
330
1413
100
AcDbXrecord
280
     1
102
RTVSPost2010Prop28
280
     1
102
RTVSPost2010PropOp28
 70
     1
102
RTVSPost2010Prop29
280
     1
102
RTVSPost2010PropOp29
 70
     1
102
RTVSPost2010Prop30
280
     0
102
RTVSPost2010PropOp30
 70
     1
102
RTVSPost2010Prop31
280
     0
102
RTVSPost2010PropOp31
 70
     1
102
RTVSPost2010Prop32
280
     0
102
RTVSPost2010PropOp32
 70
     1
102
RTVSPost2010Prop33
280
     0
102
RTVSPost2010PropOp33
 70
     1
102
RTVSPost2010Prop34
280
     0
102
RTVSPost2010PropOp34
 70
     1
102
RTVSPost2010Prop35
280
     0
102
RTVSPost2010PropOp35
 70
     1
102
RTVSPost2010Prop36
280
     0
102
RTVSPost2010PropOp36
 70
     1
102
RTVSPost2010Prop37
 90
       50
102
RTVSPost2010PropOp37
 70
     1
102
RTVSPost2010Prop38
140
0.0
102
RTVSPost2010PropOp38
 70
     1
102
RTVSPost2010Prop39
140
1.0
102
RTVSPost2010PropOp39
 70
     1
102
RTVSPost2010Prop40
 90
        0
102
RTVSPost2010PropOp40
 70
     1
102
RTVSPost2010Prop41ColorIndex
 90
      178
102
RTVSPost2010Prop41ColorRGB
 90
        0
102
RTVSPost2010PropOp41
 70
     1
102
RTVSPost2010Prop42
 90
       50
102
RTVSPost2010PropOp42
 70
     1
102
RTVSPost2010Prop43
 90
        3
102
RTVSPost2010PropOp43
 70
     1
102
RTVSPost2010Prop44ColorIndex
 90
        5
102
RTVSPost2010Prop44ColorRGB
 90
      255
102
RTVSPost2010PropOp44
 70
     1
102
RTVSPost2010Prop45
280
     0
102
RTVSPost2010PropOp45
 70
     1
102
RTVSPost2010Prop46
 90
       50
102
RTVSPost2010PropOp46
 70
     1
102
RTVSPost2010Prop47
 90
       50
102
RTVSPost2010PropOp47
 70
     1
102
RTVSPost2010Prop48
 90
       50
102
RTVSPost2010PropOp48
 70
     1
102
RTVSPost2010Prop49
280
     0
102
RTVSPost2010PropOp49
 70
     1
102
RTVSPost2010Prop50
 90
       50
102
RTVSPost2010PropOp50
 70
     1
102
RTVSPost2010Prop51ColorIndex
 90
      256
102
RTVSPost2010Prop51ColorRGB
 90
-16777216
102
RTVSPost2010PropOp51
 70
     0
102
RTVSPost2010Prop52
140
1.0
102
RTVSPost2010PropOp52
 70
     0
102
RTVSPost2010Prop53
 90
        2
102
RTVSPost2010PropOp53
 70
     1
102
RTVSPost2010Prop54
  1
strokes_ogs.tif
102
RTVSPost2010PropOp54
 70
     1
102
RTVSPost2010Prop55
280
     0
102
RTVSPost2010PropOp55
 70
     1
102
RTVSPost2010Prop56
140
1.0
102
RTVSPost2010PropOp56
 70
     1
102
RTVSPost2010Prop57
140
1.0
102
RTVSPost2010PropOp57
 70
     1
  0
XRECORD
  5
141A
102
{ACAD_REACTORS
330
1419
102
}
330
1419
100
AcDbXrecord
280
     1
102
RTVSPost2010Prop28
280
     0
102
RTVSPost2010PropOp28
 70
     1
102
RTVSPost2010Prop29
280
     1
102
RTVSPost2010PropOp29
 70
     1
102
RTVSPost2010Prop30
280
     1
102
RTVSPost2010PropOp30
 70
     1
102
RTVSPost2010Prop31
280
     0
102
RTVSPost2010PropOp31
 70
     1
102
RTVSPost2010Prop32
280
     0
102
RTVSPost2010PropOp32
 70
     1
102
RTVSPost2010Prop33
280
     0
102
RTVSPost2010PropOp33
 70
     1
102
RTVSPost2010Prop34
280
     0
102
RTVSPost2010PropOp34
 70
     1
102
RTVSPost2010Prop35
280
     0
102
RTVSPost2010PropOp35
 70
     1
102
RTVSPost2010Prop36
280
     0
102
RTVSPost2010PropOp36
 70
     1
102
RTVSPost2010Prop37
 90
       50
102
RTVSPost2010PropOp37
 70
     1
102
RTVSPost2010Prop38
140
0.0
102
RTVSPost2010PropOp38
 70
     1
102
RTVSPost2010Prop39
140
1.0
102
RTVSPost2010PropOp39
 70
     1
102
RTVSPost2010Prop40
 90
        0
102
RTVSPost2010PropOp40
 70
     1
102
RTVSPost2010Prop41ColorIndex
 90
      178
102
RTVSPost2010Prop41ColorRGB
 90
        0
102
RTVSPost2010PropOp41
 70
     1
102
RTVSPost2010Prop42
 90
       50
102
RTVSPost2010PropOp42
 70
     1
102
RTVSPost2010Prop43
 90
        3
102
RTVSPost2010PropOp43
 70
     1
102
RTVSPost2010Prop44ColorIndex
 90
        5
102
RTVSPost2010Prop44ColorRGB
 90
      255
102
RTVSPost2010PropOp44
 70
     1
102
RTVSPost2010Prop45
280
     0
102
RTVSPost2010PropOp45
 70
     1
102
RTVSPost2010Prop46
 90
       50
102
RTVSPost2010PropOp46
 70
     1
102
RTVSPost2010Prop47
 90
       50
102
RTVSPost2010PropOp47
 70
     1
102
RTVSPost2010Prop48
 90
       50
102
RTVSPost2010PropOp48
 70
     1
102
RTVSPost2010Prop49
280
     0
102
RTVSPost2010PropOp49
 70
     1
102
RTVSPost2010Prop50
 90
       50
102
RTVSPost2010PropOp50
 70
     1
102
RTVSPost2010Prop51ColorIndex
 90
      256
102
RTVSPost2010Prop51ColorRGB
 90
-16777216
102
RTVSPost2010PropOp51
 70
     0
102
RTVSPost2010Prop52
140
1.0
102
RTVSPost2010PropOp52
 70
     0
102
RTVSPost2010Prop53
 90
        2
102
RTVSPost2010PropOp53
 70
     1
102
RTVSPost2010Prop54
  1
strokes_ogs.tif
102
RTVSPost2010PropOp54
 70
     1
102
RTVSPost2010Prop55
280
     0
102
RTVSPost2010PropOp55
 70
     1
102
RTVSPost2010Prop56
140
1.0
102
RTVSPost2010PropOp56
 70
     1
102
RTVSPost2010Prop57
140
1.0
102
RTVSPost2010PropOp57
 70
     1
  0
XRECORD
  5
1422
102
{ACAD_REACTORS
330
1421
102
}
330
1421
100
AcDbXrecord
280
     1
102
RTVSPost2010Prop28
280
     0
102
RTVSPost2010PropOp28
 70
     1
102
RTVSPost2010Prop29
280
     1
102
RTVSPost2010PropOp29
 70
     1
102
RTVSPost2010Prop30
280
     1
102
RTVSPost2010PropOp30
 70
     1
102
RTVSPost2010Prop31
280
     0
102
RTVSPost2010PropOp31
 70
     1
102
RTVSPost2010Prop32
280
     0
102
RTVSPost2010PropOp32
 70
     1
102
RTVSPost2010Prop33
280
     0
102
RTVSPost2010PropOp33
 70
     1
102
RTVSPost2010Prop34
280
     0
102
RTVSPost2010PropOp34
 70
     1
102
RTVSPost2010Prop35
280
     0
102
RTVSPost2010PropOp35
 70
     1
102
RTVSPost2010Prop36
280
     0
102
RTVSPost2010PropOp36
 70
     1
102
RTVSPost2010Prop37
 90
       50
102
RTVSPost2010PropOp37
 70
     1
102
RTVSPost2010Prop38
140
0.0
102
RTVSPost2010PropOp38
 70
     1
102
RTVSPost2010Prop39
140
1.0
102
RTVSPost2010PropOp39
 70
     1
102
RTVSPost2010Prop40
 90
        0
102
RTVSPost2010PropOp40
 70
     1
102
RTVSPost2010Prop41ColorIndex
 90
      178
102
RTVSPost2010Prop41ColorRGB
 90
        0
102
RTVSPost2010PropOp41
 70
     1
102
RTVSPost2010Prop42
 90
       50
102
RTVSPost2010PropOp42
 70
     1
102
RTVSPost2010Prop43
 90
        3
102
RTVSPost2010PropOp43
 70
     1
102
RTVSPost2010Prop44ColorIndex
 90
        5
102
RTVSPost2010Prop44ColorRGB
 90
      255
102
RTVSPost2010PropOp44
 70
     1
102
RTVSPost2010Prop45
280
     0
102
RTVSPost2010PropOp45
 70
     1
102
RTVSPost2010Prop46
 90
       50
102
RTVSPost2010PropOp46
 70
     1
102
RTVSPost2010Prop47
 90
       50
102
RTVSPost2010PropOp47
 70
     1
102
RTVSPost2010Prop48
 90
       50
102
RTVSPost2010PropOp48
 70
     1
102
RTVSPost2010Prop49
280
     0
102
RTVSPost2010PropOp49
 70
     1
102
RTVSPost2010Prop50
 90
       50
102
RTVSPost2010PropOp50
 70
     1
102
RTVSPost2010Prop51ColorIndex
 90
      256
102
RTVSPost2010Prop51ColorRGB
 90
-16777216
102
RTVSPost2010PropOp51
 70
     0
102
RTVSPost2010Prop52
140
1.0
102
RTVSPost2010PropOp52
 70
     0
102
RTVSPost2010Prop53
 90
        2
102
RTVSPost2010PropOp53
 70
     1
102
RTVSPost2010Prop54
  1
strokes_ogs.tif
102
RTVSPost2010PropOp54
 70
     1
102
RTVSPost2010Prop55
280
     0
102
RTVSPost2010PropOp55
 70
     1
102
RTVSPost2010Prop56
140
1.0
102
RTVSPost2010PropOp56
 70
     1
102
RTVSPost2010Prop57
140
1.0
102
RTVSPost2010PropOp57
 70
     1
  0
XRECORD
  5
142A
102
{ACAD_REACTORS
330
1429
102
}
330
1429
100
AcDbXrecord
280
     1
102
RTVSPost2010Prop28
280
     0
102
RTVSPost2010PropOp28
 70
     1
102
RTVSPost2010Prop29
280
     1
102
RTVSPost2010PropOp29
 70
     1
102
RTVSPost2010Prop30
280
     1
102
RTVSPost2010PropOp30
 70
     1
102
RTVSPost2010Prop31
280
     0
102
RTVSPost2010PropOp31
 70
     1
102
RTVSPost2010Prop32
280
     0
102
RTVSPost2010PropOp32
 70
     1
102
RTVSPost2010Prop33
280
     0
102
RTVSPost2010PropOp33
 70
     1
102
RTVSPost2010Prop34
280
     0
102
RTVSPost2010PropOp34
 70
     1
102
RTVSPost2010Prop35
280
     0
102
RTVSPost2010PropOp35
 70
     1
102
RTVSPost2010Prop36
280
     0
102
RTVSPost2010PropOp36
 70
     1
102
RTVSPost2010Prop37
 90
       50
102
RTVSPost2010PropOp37
 70
     1
102
RTVSPost2010Prop38
140
0.0
102
RTVSPost2010PropOp38
 70
     1
102
RTVSPost2010Prop39
140
1.0
102
RTVSPost2010PropOp39
 70
     1
102
RTVSPost2010Prop40
 90
        0
102
RTVSPost2010PropOp40
 70
     1
102
RTVSPost2010Prop41ColorIndex
 90
      178
102
RTVSPost2010Prop41ColorRGB
 90
        0
102
RTVSPost2010PropOp41
 70
     1
102
RTVSPost2010Prop42
 90
       50
102
RTVSPost2010PropOp42
 70
     1
102
RTVSPost2010Prop43
 90
        3
102
RTVSPost2010PropOp43
 70
     1
102
RTVSPost2010Prop44ColorIndex
 90
        5
102
RTVSPost2010Prop44ColorRGB
 90
      255
102
RTVSPost2010PropOp44
 70
     1
102
RTVSPost2010Prop45
280
     0
102
RTVSPost2010PropOp45
 70
     1
102
RTVSPost2010Prop46
 90
       50
102
RTVSPost2010PropOp46
 70
     1
102
RTVSPost2010Prop47
 90
       50
102
RTVSPost2010PropOp47
 70
     1
102
RTVSPost2010Prop48
 90
       50
102
RTVSPost2010PropOp48
 70
     1
102
RTVSPost2010Prop49
280
     0
102
RTVSPost2010PropOp49
 70
     1
102
RTVSPost2010Prop50
 90
       50
102
RTVSPost2010PropOp50
 70
     1
102
RTVSPost2010Prop51ColorIndex
 90
      256
102
RTVSPost2010Prop51ColorRGB
 90
-16777216
102
RTVSPost2010PropOp51
 70
     0
102
RTVSPost2010Prop52
140
1.0
102
RTVSPost2010PropOp52
 70
     0
102
RTVSPost2010Prop53
 90
        2
102
RTVSPost2010PropOp53
 70
     1
102
RTVSPost2010Prop54
  1
strokes_ogs.tif
102
RTVSPost2010PropOp54
 70
     1
102
RTVSPost2010Prop55
280
     0
102
RTVSPost2010PropOp55
 70
     1
102
RTVSPost2010Prop56
140
1.0
102
RTVSPost2010PropOp56
 70
     1
102
RTVSPost2010Prop57
140
1.0
102
RTVSPost2010PropOp57
 70
     1
  0
XRECORD
  5
141E
102
{ACAD_REACTORS
330
141D
102
}
330
141D
100
AcDbXrecord
280
     1
102
RTVSPost2010Prop28
280
     0
102
RTVSPost2010PropOp28
 70
     1
102
RTVSPost2010Prop29
280
     1
102
RTVSPost2010PropOp29
 70
     1
102
RTVSPost2010Prop30
280
     1
102
RTVSPost2010PropOp30
 70
     1
102
RTVSPost2010Prop31
280
     0
102
RTVSPost2010PropOp31
 70
     1
102
RTVSPost2010Prop32
280
     0
102
RTVSPost2010PropOp32
 70
     1
102
RTVSPost2010Prop33
280
     0
102
RTVSPost2010PropOp33
 70
     1
102
RTVSPost2010Prop34
280
     0
102
RTVSPost2010PropOp34
 70
     1
102
RTVSPost2010Prop35
280
     0
102
RTVSPost2010PropOp35
 70
     1
102
RTVSPost2010Prop36
280
     0
102
RTVSPost2010PropOp36
 70
     1
102
RTVSPost2010Prop37
 90
       50
102
RTVSPost2010PropOp37
 70
     1
102
RTVSPost2010Prop38
140
0.0
102
RTVSPost2010PropOp38
 70
     1
102
RTVSPost2010Prop39
140
1.0
102
RTVSPost2010PropOp39
 70
     1
102
RTVSPost2010Prop40
 90
        0
102
RTVSPost2010PropOp40
 70
     1
102
RTVSPost2010Prop41ColorIndex
 90
      178
102
RTVSPost2010Prop41ColorRGB
 90
        0
102
RTVSPost2010PropOp41
 70
     1
102
RTVSPost2010Prop42
 90
       50
102
RTVSPost2010PropOp42
 70
     1
102
RTVSPost2010Prop43
 90
        3
102
RTVSPost2010PropOp43
 70
     1
102
RTVSPost2010Prop44ColorIndex
 90
        5
102
RTVSPost2010Prop44ColorRGB
 90
      255
102
RTVSPost2010PropOp44
 70
     1
102
RTVSPost2010Prop45
280
     0
102
RTVSPost2010PropOp45
 70
     1
102
RTVSPost2010Prop46
 90
       50
102
RTVSPost2010PropOp46
 70
     1
102
RTVSPost2010Prop47
 90
       50
102
RTVSPost2010PropOp47
 70
     1
102
RTVSPost2010Prop48
 90
       50
102
RTVSPost2010PropOp48
 70
     1
102
RTVSPost2010Prop49
280
     0
102
RTVSPost2010PropOp49
 70
     1
102
RTVSPost2010Prop50
 90
       50
102
RTVSPost2010PropOp50
 70
     1
102
RTVSPost2010Prop51ColorIndex
 90
      256
102
RTVSPost2010Prop51ColorRGB
 90
-16777216
102
RTVSPost2010PropOp51
 70
     0
102
RTVSPost2010Prop52
140
1.0
102
RTVSPost2010PropOp52
 70
     0
102
RTVSPost2010Prop53
 90
        2
102
RTVSPost2010PropOp53
 70
     1
102
RTVSPost2010Prop54
  1
strokes_ogs.tif
102
RTVSPost2010PropOp54
 70
     1
102
RTVSPost2010Prop55
280
     0
102
RTVSPost2010PropOp55
 70
     1
102
RTVSPost2010Prop56
140
1.0
102
RTVSPost2010PropOp56
 70
     1
102
RTVSPost2010Prop57
140
1.0
102
RTVSPost2010PropOp57
 70
     1
  0
XRECORD
  5
1420
102
{ACAD_REACTORS
330
141F
102
}
330
141F
100
AcDbXrecord
280
     1
102
RTVSPost2010Prop28
280
     0
102
RTVSPost2010PropOp28
 70
     1
102
RTVSPost2010Prop29
280
     1
102
RTVSPost2010PropOp29
 70
     1
102
RTVSPost2010Prop30
280
     1
102
RTVSPost2010PropOp30
 70
     1
102
RTVSPost2010Prop31
280
     0
102
RTVSPost2010PropOp31
 70
     1
102
RTVSPost2010Prop32
280
     0
102
RTVSPost2010PropOp32
 70
     1
102
RTVSPost2010Prop33
280
     0
102
RTVSPost2010PropOp33
 70
     1
102
RTVSPost2010Prop34
280
     0
102
RTVSPost2010PropOp34
 70
     1
102
RTVSPost2010Prop35
280
     0
102
RTVSPost2010PropOp35
 70
     1
102
RTVSPost2010Prop36
280
     0
102
RTVSPost2010PropOp36
 70
     1
102
RTVSPost2010Prop37
 90
       50
102
RTVSPost2010PropOp37
 70
     1
102
RTVSPost2010Prop38
140
0.0
102
RTVSPost2010PropOp38
 70
     1
102
RTVSPost2010Prop39
140
1.0
102
RTVSPost2010PropOp39
 70
     1
102
RTVSPost2010Prop40
 90
        0
102
RTVSPost2010PropOp40
 70
     1
102
RTVSPost2010Prop41ColorIndex
 90
      178
102
RTVSPost2010Prop41ColorRGB
 90
        0
102
RTVSPost2010PropOp41
 70
     1
102
RTVSPost2010Prop42
 90
       50
102
RTVSPost2010PropOp42
 70
     1
102
RTVSPost2010Prop43
 90
        3
102
RTVSPost2010PropOp43
 70
     1
102
RTVSPost2010Prop44ColorIndex
 90
        5
102
RTVSPost2010Prop44ColorRGB
 90
      255
102
RTVSPost2010PropOp44
 70
     1
102
RTVSPost2010Prop45
280
     0
102
RTVSPost2010PropOp45
 70
     1
102
RTVSPost2010Prop46
 90
       50
102
RTVSPost2010PropOp46
 70
     1
102
RTVSPost2010Prop47
 90
       50
102
RTVSPost2010PropOp47
 70
     1
102
RTVSPost2010Prop48
 90
       50
102
RTVSPost2010PropOp48
 70
     1
102
RTVSPost2010Prop49
280
     0
102
RTVSPost2010PropOp49
 70
     1
102
RTVSPost2010Prop50
 90
       50
102
RTVSPost2010PropOp50
 70
     1
102
RTVSPost2010Prop51ColorIndex
 90
      256
102
RTVSPost2010Prop51ColorRGB
 90
-16777216
102
RTVSPost2010PropOp51
 70
     0
102
RTVSPost2010Prop52
140
1.0
102
RTVSPost2010PropOp52
 70
     0
102
RTVSPost2010Prop53
 90
        2
102
RTVSPost2010PropOp53
 70
     1
102
RTVSPost2010Prop54
  1
strokes_ogs.tif
102
RTVSPost2010PropOp54
 70
     1
102
RTVSPost2010Prop55
280
     0
102
RTVSPost2010PropOp55
 70
     1
102
RTVSPost2010Prop56
140
1.0
102
RTVSPost2010PropOp56
 70
     1
102
RTVSPost2010Prop57
140
1.0
102
RTVSPost2010PropOp57
 70
     1
  0
XRECORD
  5
1430
102
{ACAD_REACTORS
330
142F
102
}
330
142F
100
AcDbXrecord
280
     1
102
RTVSPost2010Prop28
280
     0
102
RTVSPost2010PropOp28
 70
     0
102
RTVSPost2010Prop29
280
     1
102
RTVSPost2010PropOp29
 70
     0
102
RTVSPost2010Prop30
280
     1
102
RTVSPost2010PropOp30
 70
     0
102
RTVSPost2010Prop31
280
     0
102
RTVSPost2010PropOp31
 70
     0
102
RTVSPost2010Prop32
280
     0
102
RTVSPost2010PropOp32
 70
     0
102
RTVSPost2010Prop33
280
     0
102
RTVSPost2010PropOp33
 70
     0
102
RTVSPost2010Prop34
280
     0
102
RTVSPost2010PropOp34
 70
     0
102
RTVSPost2010Prop35
280
     0
102
RTVSPost2010PropOp35
 70
     0
102
RTVSPost2010Prop36
280
     0
102
RTVSPost2010PropOp36
 70
     0
102
RTVSPost2010Prop37
 90
       50
102
RTVSPost2010PropOp37
 70
     0
102
RTVSPost2010Prop38
140
0.0
102
RTVSPost2010PropOp38
 70
     0
102
RTVSPost2010Prop39
140
1.0
102
RTVSPost2010PropOp39
 70
     0
102
RTVSPost2010Prop40
 90
        0
102
RTVSPost2010PropOp40
 70
     0
102
RTVSPost2010Prop41ColorIndex
 90
      178
102
RTVSPost2010Prop41ColorRGB
 90
        0
102
RTVSPost2010PropOp41
 70
     0
102
RTVSPost2010Prop42
 90
       50
102
RTVSPost2010PropOp42
 70
     0
102
RTVSPost2010Prop43
 90
        3
102
RTVSPost2010PropOp43
 70
     0
102
RTVSPost2010Prop44ColorIndex
 90
        5
102
RTVSPost2010Prop44ColorRGB
 90
      255
102
RTVSPost2010PropOp44
 70
     0
102
RTVSPost2010Prop45
280
     0
102
RTVSPost2010PropOp45
 70
     0
102
RTVSPost2010Prop46
 90
       50
102
RTVSPost2010PropOp46
 70
     0
102
RTVSPost2010Prop47
 90
       50
102
RTVSPost2010PropOp47
 70
     0
102
RTVSPost2010Prop48
 90
       50
102
RTVSPost2010PropOp48
 70
     0
102
RTVSPost2010Prop49
280
     0
102
RTVSPost2010PropOp49
 70
     0
102
RTVSPost2010Prop50
 90
       50
102
RTVSPost2010PropOp50
 70
     0
102
RTVSPost2010Prop51ColorIndex
 90
      256
102
RTVSPost2010Prop51ColorRGB
 90
-16777216
102
RTVSPost2010PropOp51
 70
     0
102
RTVSPost2010Prop52
140
1.0
102
RTVSPost2010PropOp52
 70
     0
102
RTVSPost2010Prop53
 90
        2
102
RTVSPost2010PropOp53
 70
     0
102
RTVSPost2010Prop54
  1
strokes_ogs.tif
102
RTVSPost2010PropOp54
 70
     0
102
RTVSPost2010Prop55
280
     0
102
RTVSPost2010PropOp55
 70
     0
102
RTVSPost2010Prop56
140
1.0
102
RTVSPost2010PropOp56
 70
     0
102
RTVSPost2010Prop57
140
1.0
102
RTVSPost2010PropOp57
 70
     0
  0
XRECORD
  5
1428
102
{ACAD_REACTORS
330
1427
102
}
330
1427
100
AcDbXrecord
280
     1
102
RTVSPost2010Prop28
280
     0
102
RTVSPost2010PropOp28
 70
     1
102
RTVSPost2010Prop29
280
     1
102
RTVSPost2010PropOp29
 70
     1
102
RTVSPost2010Prop30
280
     1
102
RTVSPost2010PropOp30
 70
     1
102
RTVSPost2010Prop31
280
     0
102
RTVSPost2010PropOp31
 70
     1
102
RTVSPost2010Prop32
280
     0
102
RTVSPost2010PropOp32
 70
     1
102
RTVSPost2010Prop33
280
     0
102
RTVSPost2010PropOp33
 70
     1
102
RTVSPost2010Prop34
280
     0
102
RTVSPost2010PropOp34
 70
     1
102
RTVSPost2010Prop35
280
     0
102
RTVSPost2010PropOp35
 70
     1
102
RTVSPost2010Prop36
280
     0
102
RTVSPost2010PropOp36
 70
     1
102
RTVSPost2010Prop37
 90
       50
102
RTVSPost2010PropOp37
 70
     1
102
RTVSPost2010Prop38
140
0.0
102
RTVSPost2010PropOp38
 70
     1
102
RTVSPost2010Prop39
140
1.0
102
RTVSPost2010PropOp39
 70
     1
102
RTVSPost2010Prop40
 90
        0
102
RTVSPost2010PropOp40
 70
     1
102
RTVSPost2010Prop41ColorIndex
 90
      178
102
RTVSPost2010Prop41ColorRGB
 90
        0
102
RTVSPost2010PropOp41
 70
     1
102
RTVSPost2010Prop42
 90
       50
102
RTVSPost2010PropOp42
 70
     1
102
RTVSPost2010Prop43
 90
        3
102
RTVSPost2010PropOp43
 70
     1
102
RTVSPost2010Prop44ColorIndex
 90
        5
102
RTVSPost2010Prop44ColorRGB
 90
      255
102
RTVSPost2010PropOp44
 70
     1
102
RTVSPost2010Prop45
280
     0
102
RTVSPost2010PropOp45
 70
     1
102
RTVSPost2010Prop46
 90
       50
102
RTVSPost2010PropOp46
 70
     1
102
RTVSPost2010Prop47
 90
       50
102
RTVSPost2010PropOp47
 70
     1
102
RTVSPost2010Prop48
 90
       50
102
RTVSPost2010PropOp48
 70
     1
102
RTVSPost2010Prop49
280
     0
102
RTVSPost2010PropOp49
 70
     1
102
RTVSPost2010Prop50
 90
       50
102
RTVSPost2010PropOp50
 70
     1
102
RTVSPost2010Prop51ColorIndex
 90
      256
102
RTVSPost2010Prop51ColorRGB
 90
-16777216
102
RTVSPost2010PropOp51
 70
     0
102
RTVSPost2010Prop52
140
1.0
102
RTVSPost2010PropOp52
 70
     0
102
RTVSPost2010Prop53
 90
        2
102
RTVSPost2010PropOp53
 70
     1
102
RTVSPost2010Prop54
  1
strokes_ogs.tif
102
RTVSPost2010PropOp54
 70
     1
102
RTVSPost2010Prop55
280
     0
102
RTVSPost2010PropOp55
 70
     1
102
RTVSPost2010Prop56
140
1.0
102
RTVSPost2010PropOp56
 70
     1
102
RTVSPost2010Prop57
140
1.0
102
RTVSPost2010PropOp57
 70
     1
  0
XRECORD
  5
140C
102
{ACAD_REACTORS
330
140B
102
}
330
140B
100
AcDbXrecord
280
     1
102
RTVSPost2010Prop28
280
     0
102
RTVSPost2010PropOp28
 70
     1
102
RTVSPost2010Prop29
280
     1
102
RTVSPost2010PropOp29
 70
     1
102
RTVSPost2010Prop30
280
     1
102
RTVSPost2010PropOp30
 70
     1
102
RTVSPost2010Prop31
280
     0
102
RTVSPost2010PropOp31
 70
     1
102
RTVSPost2010Prop32
280
     0
102
RTVSPost2010PropOp32
 70
     1
102
RTVSPost2010Prop33
280
     0
102
RTVSPost2010PropOp33
 70
     1
102
RTVSPost2010Prop34
280
     0
102
RTVSPost2010PropOp34
 70
     1
102
RTVSPost2010Prop35
280
     0
102
RTVSPost2010PropOp35
 70
     1
102
RTVSPost2010Prop36
280
     0
102
RTVSPost2010PropOp36
 70
     1
102
RTVSPost2010Prop37
 90
       50
102
RTVSPost2010PropOp37
 70
     1
102
RTVSPost2010Prop38
140
0.0
102
RTVSPost2010PropOp38
 70
     1
102
RTVSPost2010Prop39
140
1.0
102
RTVSPost2010PropOp39
 70
     1
102
RTVSPost2010Prop40
 90
        0
102
RTVSPost2010PropOp40
 70
     1
102
RTVSPost2010Prop41ColorIndex
 90
      178
102
RTVSPost2010Prop41ColorRGB
 90
        0
102
RTVSPost2010PropOp41
 70
     1
102
RTVSPost2010Prop42
 90
       50
102
RTVSPost2010PropOp42
 70
     1
102
RTVSPost2010Prop43
 90
        3
102
RTVSPost2010PropOp43
 70
     1
102
RTVSPost2010Prop44ColorIndex
 90
        5
102
RTVSPost2010Prop44ColorRGB
 90
      255
102
RTVSPost2010PropOp44
 70
     1
102
RTVSPost2010Prop45
280
     0
102
RTVSPost2010PropOp45
 70
     1
102
RTVSPost2010Prop46
 90
       50
102
RTVSPost2010PropOp46
 70
     1
102
RTVSPost2010Prop47
 90
       50
102
RTVSPost2010PropOp47
 70
     1
102
RTVSPost2010Prop48
 90
       50
102
RTVSPost2010PropOp48
 70
     1
102
RTVSPost2010Prop49
280
     0
102
RTVSPost2010PropOp49
 70
     1
102
RTVSPost2010Prop50
 90
       50
102
RTVSPost2010PropOp50
 70
     1
102
RTVSPost2010Prop51ColorIndex
 90
      256
102
RTVSPost2010Prop51ColorRGB
 90
-16777216
102
RTVSPost2010PropOp51
 70
     0
102
RTVSPost2010Prop52
140
1.0
102
RTVSPost2010PropOp52
 70
     0
102
RTVSPost2010Prop53
 90
        2
102
RTVSPost2010PropOp53
 70
     1
102
RTVSPost2010Prop54
  1
strokes_ogs.tif
102
RTVSPost2010PropOp54
 70
     1
102
RTVSPost2010Prop55
280
     0
102
RTVSPost2010PropOp55
 70
     1
102
RTVSPost2010Prop56
140
1.0
102
RTVSPost2010PropOp56
 70
     1
102
RTVSPost2010Prop57
140
1.0
102
RTVSPost2010PropOp57
 70
     1
  0
XRECORD
  5
140E
102
{ACAD_REACTORS
330
140D
102
}
330
140D
100
AcDbXrecord
280
     1
102
RTVSPost2010Prop28
280
     0
102
RTVSPost2010PropOp28
 70
     1
102
RTVSPost2010Prop29
280
     1
102
RTVSPost2010PropOp29
 70
     1
102
RTVSPost2010Prop30
280
     1
102
RTVSPost2010PropOp30
 70
     1
102
RTVSPost2010Prop31
280
     0
102
RTVSPost2010PropOp31
 70
     1
102
RTVSPost2010Prop32
280
     0
102
RTVSPost2010PropOp32
 70
     1
102
RTVSPost2010Prop33
280
     0
102
RTVSPost2010PropOp33
 70
     1
102
RTVSPost2010Prop34
280
     0
102
RTVSPost2010PropOp34
 70
     1
102
RTVSPost2010Prop35
280
     0
102
RTVSPost2010PropOp35
 70
     1
102
RTVSPost2010Prop36
280
     0
102
RTVSPost2010PropOp36
 70
     1
102
RTVSPost2010Prop37
 90
       50
102
RTVSPost2010PropOp37
 70
     1
102
RTVSPost2010Prop38
140
0.0
102
RTVSPost2010PropOp38
 70
     1
102
RTVSPost2010Prop39
140
1.0
102
RTVSPost2010PropOp39
 70
     1
102
RTVSPost2010Prop40
 90
        0
102
RTVSPost2010PropOp40
 70
     1
102
RTVSPost2010Prop41ColorIndex
 90
      178
102
RTVSPost2010Prop41ColorRGB
 90
        0
102
RTVSPost2010PropOp41
 70
     1
102
RTVSPost2010Prop42
 90
       50
102
RTVSPost2010PropOp42
 70
     1
102
RTVSPost2010Prop43
 90
        3
102
RTVSPost2010PropOp43
 70
     1
102
RTVSPost2010Prop44ColorIndex
 90
        5
102
RTVSPost2010Prop44ColorRGB
 90
      255
102
RTVSPost2010PropOp44
 70
     1
102
RTVSPost2010Prop45
280
     0
102
RTVSPost2010PropOp45
 70
     1
102
RTVSPost2010Prop46
 90
       50
102
RTVSPost2010PropOp46
 70
     1
102
RTVSPost2010Prop47
 90
       50
102
RTVSPost2010PropOp47
 70
     1
102
RTVSPost2010Prop48
 90
       50
102
RTVSPost2010PropOp48
 70
     1
102
RTVSPost2010Prop49
280
     0
102
RTVSPost2010PropOp49
 70
     1
102
RTVSPost2010Prop50
 90
       50
102
RTVSPost2010PropOp50
 70
     1
102
RTVSPost2010Prop51ColorIndex
 90
      256
102
RTVSPost2010Prop51ColorRGB
 90
-16777216
102
RTVSPost2010PropOp51
 70
     0
102
RTVSPost2010Prop52
140
1.0
102
RTVSPost2010PropOp52
 70
     0
102
RTVSPost2010Prop53
 90
        2
102
RTVSPost2010PropOp53
 70
     1
102
RTVSPost2010Prop54
  1
strokes_ogs.tif
102
RTVSPost2010PropOp54
 70
     1
102
RTVSPost2010Prop55
280
     0
102
RTVSPost2010PropOp55
 70
     1
102
RTVSPost2010Prop56
140
1.0
102
RTVSPost2010PropOp56
 70
     1
102
RTVSPost2010Prop57
140
1.0
102
RTVSPost2010PropOp57
 70
     1
  0
XRECORD
  5
1410
102
{ACAD_REACTORS
330
140F
102
}
330
140F
100
AcDbXrecord
280
     1
102
RTVSPost2010Prop28
280
     0
102
RTVSPost2010PropOp28
 70
     1
102
RTVSPost2010Prop29
280
     1
102
RTVSPost2010PropOp29
 70
     1
102
RTVSPost2010Prop30
280
     1
102
RTVSPost2010PropOp30
 70
     1
102
RTVSPost2010Prop31
280
     0
102
RTVSPost2010PropOp31
 70
     1
102
RTVSPost2010Prop32
280
     0
102
RTVSPost2010PropOp32
 70
     1
102
RTVSPost2010Prop33
280
     0
102
RTVSPost2010PropOp33
 70
     1
102
RTVSPost2010Prop34
280
     0
102
RTVSPost2010PropOp34
 70
     1
102
RTVSPost2010Prop35
280
     0
102
RTVSPost2010PropOp35
 70
     1
102
RTVSPost2010Prop36
280
     0
102
RTVSPost2010PropOp36
 70
     1
102
RTVSPost2010Prop37
 90
       50
102
RTVSPost2010PropOp37
 70
     1
102
RTVSPost2010Prop38
140
0.0
102
RTVSPost2010PropOp38
 70
     1
102
RTVSPost2010Prop39
140
1.0
102
RTVSPost2010PropOp39
 70
     1
102
RTVSPost2010Prop40
 90
        0
102
RTVSPost2010PropOp40
 70
     1
102
RTVSPost2010Prop41ColorIndex
 90
      178
102
RTVSPost2010Prop41ColorRGB
 90
        0
102
RTVSPost2010PropOp41
 70
     1
102
RTVSPost2010Prop42
 90
       50
102
RTVSPost2010PropOp42
 70
     1
102
RTVSPost2010Prop43
 90
        3
102
RTVSPost2010PropOp43
 70
     1
102
RTVSPost2010Prop44ColorIndex
 90
        5
102
RTVSPost2010Prop44ColorRGB
 90
      255
102
RTVSPost2010PropOp44
 70
     1
102
RTVSPost2010Prop45
280
     0
102
RTVSPost2010PropOp45
 70
     1
102
RTVSPost2010Prop46
 90
       50
102
RTVSPost2010PropOp46
 70
     1
102
RTVSPost2010Prop47
 90
       50
102
RTVSPost2010PropOp47
 70
     1
102
RTVSPost2010Prop48
 90
       50
102
RTVSPost2010PropOp48
 70
     1
102
RTVSPost2010Prop49
280
     0
102
RTVSPost2010PropOp49
 70
     1
102
RTVSPost2010Prop50
 90
       50
102
RTVSPost2010PropOp50
 70
     1
102
RTVSPost2010Prop51ColorIndex
 90
      256
102
RTVSPost2010Prop51ColorRGB
 90
-16777216
102
RTVSPost2010PropOp51
 70
     0
102
RTVSPost2010Prop52
140
1.0
102
RTVSPost2010PropOp52
 70
     0
102
RTVSPost2010Prop53
 90
        2
102
RTVSPost2010PropOp53
 70
     1
102
RTVSPost2010Prop54
  1
strokes_ogs.tif
102
RTVSPost2010PropOp54
 70
     1
102
RTVSPost2010Prop55
280
     0
102
RTVSPost2010PropOp55
 70
     1
102
RTVSPost2010Prop56
140
1.0
102
RTVSPost2010PropOp56
 70
     1
102
RTVSPost2010Prop57
140
1.0
102
RTVSPost2010PropOp57
 70
     1
  0
XRECORD
  5
1412
102
{ACAD_REACTORS
330
1411
102
}
330
1411
100
AcDbXrecord
280
     1
102
RTVSPost2010Prop28
280
     0
102
RTVSPost2010PropOp28
 70
     1
102
RTVSPost2010Prop29
280
     1
102
RTVSPost2010PropOp29
 70
     1
102
RTVSPost2010Prop30
280
     1
102
RTVSPost2010PropOp30
 70
     1
102
RTVSPost2010Prop31
280
     0
102
RTVSPost2010PropOp31
 70
     1
102
RTVSPost2010Prop32
280
     0
102
RTVSPost2010PropOp32
 70
     1
102
RTVSPost2010Prop33
280
     0
102
RTVSPost2010PropOp33
 70
     1
102
RTVSPost2010Prop34
280
     0
102
RTVSPost2010PropOp34
 70
     1
102
RTVSPost2010Prop35
280
     0
102
RTVSPost2010PropOp35
 70
     1
102
RTVSPost2010Prop36
280
     0
102
RTVSPost2010PropOp36
 70
     1
102
RTVSPost2010Prop37
 90
       50
102
RTVSPost2010PropOp37
 70
     1
102
RTVSPost2010Prop38
140
0.0
102
RTVSPost2010PropOp38
 70
     1
102
RTVSPost2010Prop39
140
1.0
102
RTVSPost2010PropOp39
 70
     1
102
RTVSPost2010Prop40
 90
        0
102
RTVSPost2010PropOp40
 70
     1
102
RTVSPost2010Prop41ColorIndex
 90
      178
102
RTVSPost2010Prop41ColorRGB
 90
        0
102
RTVSPost2010PropOp41
 70
     1
102
RTVSPost2010Prop42
 90
       50
102
RTVSPost2010PropOp42
 70
     1
102
RTVSPost2010Prop43
 90
        3
102
RTVSPost2010PropOp43
 70
     1
102
RTVSPost2010Prop44ColorIndex
 90
        5
102
RTVSPost2010Prop44ColorRGB
 90
      255
102
RTVSPost2010PropOp44
 70
     1
102
RTVSPost2010Prop45
280
     0
102
RTVSPost2010PropOp45
 70
     1
102
RTVSPost2010Prop46
 90
       50
102
RTVSPost2010PropOp46
 70
     1
102
RTVSPost2010Prop47
 90
       50
102
RTVSPost2010PropOp47
 70
     1
102
RTVSPost2010Prop48
 90
       50
102
RTVSPost2010PropOp48
 70
     1
102
RTVSPost2010Prop49
280
     0
102
RTVSPost2010PropOp49
 70
     1
102
RTVSPost2010Prop50
 90
       50
102
RTVSPost2010PropOp50
 70
     1
102
RTVSPost2010Prop51ColorIndex
 90
      256
102
RTVSPost2010Prop51ColorRGB
 90
-16777216
102
RTVSPost2010PropOp51
 70
     0
102
RTVSPost2010Prop52
140
1.0
102
RTVSPost2010PropOp52
 70
     0
102
RTVSPost2010Prop53
 90
        2
102
RTVSPost2010PropOp53
 70
     1
102
RTVSPost2010Prop54
  1
strokes_ogs.tif
102
RTVSPost2010PropOp54
 70
     1
102
RTVSPost2010Prop55
280
     0
102
RTVSPost2010PropOp55
 70
     1
102
RTVSPost2010Prop56
140
1.0
102
RTVSPost2010PropOp56
 70
     1
102
RTVSPost2010Prop57
140
1.0
102
RTVSPost2010PropOp57
 70
     1
  0
XRECORD
  5
1418
102
{ACAD_REACTORS
330
1417
102
}
330
1417
100
AcDbXrecord
280
     1
102
RTVSPost2010Prop28
280
     0
102
RTVSPost2010PropOp28
 70
     1
102
RTVSPost2010Prop29
280
     1
102
RTVSPost2010PropOp29
 70
     1
102
RTVSPost2010Prop30
280
     1
102
RTVSPost2010PropOp30
 70
     1
102
RTVSPost2010Prop31
280
     0
102
RTVSPost2010PropOp31
 70
     1
102
RTVSPost2010Prop32
280
     0
102
RTVSPost2010PropOp32
 70
     1
102
RTVSPost2010Prop33
280
     0
102
RTVSPost2010PropOp33
 70
     1
102
RTVSPost2010Prop34
280
     0
102
RTVSPost2010PropOp34
 70
     1
102
RTVSPost2010Prop35
280
     0
102
RTVSPost2010PropOp35
 70
     1
102
RTVSPost2010Prop36
280
     0
102
RTVSPost2010PropOp36
 70
     1
102
RTVSPost2010Prop37
 90
       50
102
RTVSPost2010PropOp37
 70
     1
102
RTVSPost2010Prop38
140
0.0
102
RTVSPost2010PropOp38
 70
     1
102
RTVSPost2010Prop39
140
1.0
102
RTVSPost2010PropOp39
 70
     1
102
RTVSPost2010Prop40
 90
        0
102
RTVSPost2010PropOp40
 70
     1
102
RTVSPost2010Prop41ColorIndex
 90
      178
102
RTVSPost2010Prop41ColorRGB
 90
        0
102
RTVSPost2010PropOp41
 70
     1
102
RTVSPost2010Prop42
 90
       50
102
RTVSPost2010PropOp42
 70
     1
102
RTVSPost2010Prop43
 90
        3
102
RTVSPost2010PropOp43
 70
     1
102
RTVSPost2010Prop44ColorIndex
 90
        5
102
RTVSPost2010Prop44ColorRGB
 90
      255
102
RTVSPost2010PropOp44
 70
     1
102
RTVSPost2010Prop45
280
     0
102
RTVSPost2010PropOp45
 70
     1
102
RTVSPost2010Prop46
 90
       50
102
RTVSPost2010PropOp46
 70
     1
102
RTVSPost2010Prop47
 90
       50
102
RTVSPost2010PropOp47
 70
     1
102
RTVSPost2010Prop48
 90
       50
102
RTVSPost2010PropOp48
 70
     1
102
RTVSPost2010Prop49
280
     0
102
RTVSPost2010PropOp49
 70
     1
102
RTVSPost2010Prop50
 90
       50
102
RTVSPost2010PropOp50
 70
     1
102
RTVSPost2010Prop51ColorIndex
 90
      256
102
RTVSPost2010Prop51ColorRGB
 90
-16777216
102
RTVSPost2010PropOp51
 70
     0
102
RTVSPost2010Prop52
140
1.0
102
RTVSPost2010PropOp52
 70
     0
102
RTVSPost2010Prop53
 90
        2
102
RTVSPost2010PropOp53
 70
     1
102
RTVSPost2010Prop54
  1
strokes_ogs.tif
102
RTVSPost2010PropOp54
 70
     1
102
RTVSPost2010Prop55
280
     0
102
RTVSPost2010PropOp55
 70
     1
102
RTVSPost2010Prop56
140
1.0
102
RTVSPost2010PropOp56
 70
     1
102
RTVSPost2010Prop57
140
1.0
102
RTVSPost2010PropOp57
 70
     1
  0
XRECORD
  5
142C
102
{ACAD_REACTORS
330
142B
102
}
330
142B
100
AcDbXrecord
280
     1
102
RTVSPost2010Prop28
280
     0
102
RTVSPost2010PropOp28
 70
     0
102
RTVSPost2010Prop29
280
     1
102
RTVSPost2010PropOp29
 70
     0
102
RTVSPost2010Prop30
280
     1
102
RTVSPost2010PropOp30
 70
     0
102
RTVSPost2010Prop31
280
     0
102
RTVSPost2010PropOp31
 70
     0
102
RTVSPost2010Prop32
280
     0
102
RTVSPost2010PropOp32
 70
     0
102
RTVSPost2010Prop33
280
     0
102
RTVSPost2010PropOp33
 70
     0
102
RTVSPost2010Prop34
280
     0
102
RTVSPost2010PropOp34
 70
     0
102
RTVSPost2010Prop35
280
     0
102
RTVSPost2010PropOp35
 70
     0
102
RTVSPost2010Prop36
280
     0
102
RTVSPost2010PropOp36
 70
     0
102
RTVSPost2010Prop37
 90
       50
102
RTVSPost2010PropOp37
 70
     0
102
RTVSPost2010Prop38
140
0.0
102
RTVSPost2010PropOp38
 70
     0
102
RTVSPost2010Prop39
140
1.0
102
RTVSPost2010PropOp39
 70
     0
102
RTVSPost2010Prop40
 90
        0
102
RTVSPost2010PropOp40
 70
     0
102
RTVSPost2010Prop41ColorIndex
 90
      178
102
RTVSPost2010Prop41ColorRGB
 90
        0
102
RTVSPost2010PropOp41
 70
     0
102
RTVSPost2010Prop42
 90
       50
102
RTVSPost2010PropOp42
 70
     0
102
RTVSPost2010Prop43
 90
        3
102
RTVSPost2010PropOp43
 70
     0
102
RTVSPost2010Prop44ColorIndex
 90
        5
102
RTVSPost2010Prop44ColorRGB
 90
      255
102
RTVSPost2010PropOp44
 70
     0
102
RTVSPost2010Prop45
280
     0
102
RTVSPost2010PropOp45
 70
     0
102
RTVSPost2010Prop46
 90
       50
102
RTVSPost2010PropOp46
 70
     0
102
RTVSPost2010Prop47
 90
       50
102
RTVSPost2010PropOp47
 70
     0
102
RTVSPost2010Prop48
 90
       50
102
RTVSPost2010PropOp48
 70
     0
102
RTVSPost2010Prop49
280
     0
102
RTVSPost2010PropOp49
 70
     0
102
RTVSPost2010Prop50
 90
       50
102
RTVSPost2010PropOp50
 70
     0
102
RTVSPost2010Prop51ColorIndex
 90
      256
102
RTVSPost2010Prop51ColorRGB
 90
-16777216
102
RTVSPost2010PropOp51
 70
     0
102
RTVSPost2010Prop52
140
1.0
102
RTVSPost2010PropOp52
 70
     0
102
RTVSPost2010Prop53
 90
        2
102
RTVSPost2010PropOp53
 70
     0
102
RTVSPost2010Prop54
  1
strokes_ogs.tif
102
RTVSPost2010PropOp54
 70
     0
102
RTVSPost2010Prop55
280
     0
102
RTVSPost2010PropOp55
 70
     0
102
RTVSPost2010Prop56
140
1.0
102
RTVSPost2010PropOp56
 70
     0
102
RTVSPost2010Prop57
140
1.0
102
RTVSPost2010PropOp57
 70
     0
  0
XRECORD
  5
1426
102
{ACAD_REACTORS
330
1425
102
}
330
1425
100
AcDbXrecord
280
     1
102
RTVSPost2010Prop28
280
     0
102
RTVSPost2010PropOp28
 70
     1
102
RTVSPost2010Prop29
280
     1
102
RTVSPost2010PropOp29
 70
     1
102
RTVSPost2010Prop30
280
     1
102
RTVSPost2010PropOp30
 70
     1
102
RTVSPost2010Prop31
280
     0
102
RTVSPost2010PropOp31
 70
     1
102
RTVSPost2010Prop32
280
     0
102
RTVSPost2010PropOp32
 70
     1
102
RTVSPost2010Prop33
280
     0
102
RTVSPost2010PropOp33
 70
     1
102
RTVSPost2010Prop34
280
     0
102
RTVSPost2010PropOp34
 70
     1
102
RTVSPost2010Prop35
280
     0
102
RTVSPost2010PropOp35
 70
     1
102
RTVSPost2010Prop36
280
     0
102
RTVSPost2010PropOp36
 70
     1
102
RTVSPost2010Prop37
 90
       50
102
RTVSPost2010PropOp37
 70
     1
102
RTVSPost2010Prop38
140
0.0
102
RTVSPost2010PropOp38
 70
     1
102
RTVSPost2010Prop39
140
1.0
102
RTVSPost2010PropOp39
 70
     1
102
RTVSPost2010Prop40
 90
        0
102
RTVSPost2010PropOp40
 70
     1
102
RTVSPost2010Prop41ColorIndex
 90
      178
102
RTVSPost2010Prop41ColorRGB
 90
        0
102
RTVSPost2010PropOp41
 70
     1
102
RTVSPost2010Prop42
 90
       50
102
RTVSPost2010PropOp42
 70
     1
102
RTVSPost2010Prop43
 90
        3
102
RTVSPost2010PropOp43
 70
     1
102
RTVSPost2010Prop44ColorIndex
 90
        5
102
RTVSPost2010Prop44ColorRGB
 90
      255
102
RTVSPost2010PropOp44
 70
     1
102
RTVSPost2010Prop45
280
     0
102
RTVSPost2010PropOp45
 70
     1
102
RTVSPost2010Prop46
 90
       50
102
RTVSPost2010PropOp46
 70
     1
102
RTVSPost2010Prop47
 90
       50
102
RTVSPost2010PropOp47
 70
     1
102
RTVSPost2010Prop48
 90
       50
102
RTVSPost2010PropOp48
 70
     1
102
RTVSPost2010Prop49
280
     0
102
RTVSPost2010PropOp49
 70
     1
102
RTVSPost2010Prop50
 90
       50
102
RTVSPost2010PropOp50
 70
     1
102
RTVSPost2010Prop51ColorIndex
 90
      256
102
RTVSPost2010Prop51ColorRGB
 90
-16777216
102
RTVSPost2010PropOp51
 70
     0
102
RTVSPost2010Prop52
140
1.0
102
RTVSPost2010PropOp52
 70
     0
102
RTVSPost2010Prop53
 90
        2
102
RTVSPost2010PropOp53
 70
     1
102
RTVSPost2010Prop54
  1
strokes_ogs.tif
102
RTVSPost2010PropOp54
 70
     1
102
RTVSPost2010Prop55
280
     0
102
RTVSPost2010PropOp55
 70
     1
102
RTVSPost2010Prop56
140
1.0
102
RTVSPost2010PropOp56
 70
     1
102
RTVSPost2010Prop57
140
1.0
102
RTVSPost2010PropOp57
 70
     1
  0
XRECORD
  5
142E
102
{ACAD_REACTORS
330
142D
102
}
330
142D
100
AcDbXrecord
280
     1
102
RTVSPost2010Prop28
280
     0
102
RTVSPost2010PropOp28
 70
     0
102
RTVSPost2010Prop29
280
     1
102
RTVSPost2010PropOp29
 70
     0
102
RTVSPost2010Prop30
280
     1
102
RTVSPost2010PropOp30
 70
     0
102
RTVSPost2010Prop31
280
     0
102
RTVSPost2010PropOp31
 70
     0
102
RTVSPost2010Prop32
280
     0
102
RTVSPost2010PropOp32
 70
     0
102
RTVSPost2010Prop33
280
     0
102
RTVSPost2010PropOp33
 70
     0
102
RTVSPost2010Prop34
280
     0
102
RTVSPost2010PropOp34
 70
     0
102
RTVSPost2010Prop35
280
     0
102
RTVSPost2010PropOp35
 70
     0
102
RTVSPost2010Prop36
280
     0
102
RTVSPost2010PropOp36
 70
     0
102
RTVSPost2010Prop37
 90
       50
102
RTVSPost2010PropOp37
 70
     0
102
RTVSPost2010Prop38
140
0.0
102
RTVSPost2010PropOp38
 70
     0
102
RTVSPost2010Prop39
140
1.0
102
RTVSPost2010PropOp39
 70
     0
102
RTVSPost2010Prop40
 90
        0
102
RTVSPost2010PropOp40
 70
     0
102
RTVSPost2010Prop41ColorIndex
 90
      178
102
RTVSPost2010Prop41ColorRGB
 90
        0
102
RTVSPost2010PropOp41
 70
     0
102
RTVSPost2010Prop42
 90
       50
102
RTVSPost2010PropOp42
 70
     0
102
RTVSPost2010Prop43
 90
        3
102
RTVSPost2010PropOp43
 70
     0
102
RTVSPost2010Prop44ColorIndex
 90
        5
102
RTVSPost2010Prop44ColorRGB
 90
      255
102
RTVSPost2010PropOp44
 70
     0
102
RTVSPost2010Prop45
280
     0
102
RTVSPost2010PropOp45
 70
     0
102
RTVSPost2010Prop46
 90
       50
102
RTVSPost2010PropOp46
 70
     0
102
RTVSPost2010Prop47
 90
       50
102
RTVSPost2010PropOp47
 70
     0
102
RTVSPost2010Prop48
 90
       50
102
RTVSPost2010PropOp48
 70
     0
102
RTVSPost2010Prop49
280
     0
102
RTVSPost2010PropOp49
 70
     0
102
RTVSPost2010Prop50
 90
       50
102
RTVSPost2010PropOp50
 70
     0
102
RTVSPost2010Prop51ColorIndex
 90
      256
102
RTVSPost2010Prop51ColorRGB
 90
-16777216
102
RTVSPost2010PropOp51
 70
     0
102
RTVSPost2010Prop52
140
1.0
102
RTVSPost2010PropOp52
 70
     0
102
RTVSPost2010Prop53
 90
        2
102
RTVSPost2010PropOp53
 70
     0
102
RTVSPost2010Prop54
  1
strokes_ogs.tif
102
RTVSPost2010PropOp54
 70
     0
102
RTVSPost2010Prop55
280
     0
102
RTVSPost2010PropOp55
 70
     0
102
RTVSPost2010Prop56
140
1.0
102
RTVSPost2010PropOp56
 70
     0
102
RTVSPost2010Prop57
140
1.0
102
RTVSPost2010PropOp57
 70
     0
  0
XRECORD
  5
141C
102
{ACAD_REACTORS
330
141B
102
}
330
141B
100
AcDbXrecord
280
     1
102
RTVSPost2010Prop28
280
     0
102
RTVSPost2010PropOp28
 70
     1
102
RTVSPost2010Prop29
280
     1
102
RTVSPost2010PropOp29
 70
     1
102
RTVSPost2010Prop30
280
     1
102
RTVSPost2010PropOp30
 70
     1
102
RTVSPost2010Prop31
280
     0
102
RTVSPost2010PropOp31
 70
     1
102
RTVSPost2010Prop32
280
     0
102
RTVSPost2010PropOp32
 70
     1
102
RTVSPost2010Prop33
280
     0
102
RTVSPost2010PropOp33
 70
     1
102
RTVSPost2010Prop34
280
     0
102
RTVSPost2010PropOp34
 70
     1
102
RTVSPost2010Prop35
280
     0
102
RTVSPost2010PropOp35
 70
     1
102
RTVSPost2010Prop36
280
     0
102
RTVSPost2010PropOp36
 70
     1
102
RTVSPost2010Prop37
 90
       50
102
RTVSPost2010PropOp37
 70
     1
102
RTVSPost2010Prop38
140
0.0
102
RTVSPost2010PropOp38
 70
     1
102
RTVSPost2010Prop39
140
1.0
102
RTVSPost2010PropOp39
 70
     1
102
RTVSPost2010Prop40
 90
        0
102
RTVSPost2010PropOp40
 70
     1
102
RTVSPost2010Prop41ColorIndex
 90
      178
102
RTVSPost2010Prop41ColorRGB
 90
        0
102
RTVSPost2010PropOp41
 70
     1
102
RTVSPost2010Prop42
 90
       50
102
RTVSPost2010PropOp42
 70
     1
102
RTVSPost2010Prop43
 90
        3
102
RTVSPost2010PropOp43
 70
     1
102
RTVSPost2010Prop44ColorIndex
 90
        5
102
RTVSPost2010Prop44ColorRGB
 90
      255
102
RTVSPost2010PropOp44
 70
     1
102
RTVSPost2010Prop45
280
     0
102
RTVSPost2010PropOp45
 70
     1
102
RTVSPost2010Prop46
 90
       50
102
RTVSPost2010PropOp46
 70
     1
102
RTVSPost2010Prop47
 90
       50
102
RTVSPost2010PropOp47
 70
     1
102
RTVSPost2010Prop48
 90
       50
102
RTVSPost2010PropOp48
 70
     1
102
RTVSPost2010Prop49
280
     0
102
RTVSPost2010PropOp49
 70
     1
102
RTVSPost2010Prop50
 90
       50
102
RTVSPost2010PropOp50
 70
     1
102
RTVSPost2010Prop51ColorIndex
 90
      256
102
RTVSPost2010Prop51ColorRGB
 90
-16777216
102
RTVSPost2010PropOp51
 70
     0
102
RTVSPost2010Prop52
140
1.0
102
RTVSPost2010PropOp52
 70
     0
102
RTVSPost2010Prop53
 90
        2
102
RTVSPost2010PropOp53
 70
     1
102
RTVSPost2010Prop54
  1
strokes_ogs.tif
102
RTVSPost2010PropOp54
 70
     1
102
RTVSPost2010Prop55
280
     0
102
RTVSPost2010PropOp55
 70
     1
102
RTVSPost2010Prop56
140
1.0
102
RTVSPost2010PropOp56
 70
     1
102
RTVSPost2010Prop57
140
1.0
102
RTVSPost2010PropOp57
 70
     1
  0
XRECORD
  5
143A
102
{ACAD_REACTORS
330
1439
102
}
330
1439
100
AcDbXrecord
280
     1
102
RTVSPost2010Prop28
280
     0
102
RTVSPost2010PropOp28
 70
     1
102
RTVSPost2010Prop29
280
     1
102
RTVSPost2010PropOp29
 70
     1
102
RTVSPost2010Prop30
280
     1
102
RTVSPost2010PropOp30
 70
     1
102
RTVSPost2010Prop31
280
     0
102
RTVSPost2010PropOp31
 70
     1
102
RTVSPost2010Prop32
280
     0
102
RTVSPost2010PropOp32
 70
     1
102
RTVSPost2010Prop33
280
     0
102
RTVSPost2010PropOp33
 70
     1
102
RTVSPost2010Prop34
280
     0
102
RTVSPost2010PropOp34
 70
     1
102
RTVSPost2010Prop35
280
     0
102
RTVSPost2010PropOp35
 70
     1
102
RTVSPost2010Prop36
280
     0
102
RTVSPost2010PropOp36
 70
     1
102
RTVSPost2010Prop37
 90
       50
102
RTVSPost2010PropOp37
 70
     1
102
RTVSPost2010Prop38
140
0.0
102
RTVSPost2010PropOp38
 70
     1
102
RTVSPost2010Prop39
140
1.0
102
RTVSPost2010PropOp39
 70
     1
102
RTVSPost2010Prop40
 90
        0
102
RTVSPost2010PropOp40
 70
     1
102
RTVSPost2010Prop41ColorIndex
 90
      178
102
RTVSPost2010Prop41ColorRGB
 90
        0
102
RTVSPost2010PropOp41
 70
     1
102
RTVSPost2010Prop42
 90
       50
102
RTVSPost2010PropOp42
 70
     1
102
RTVSPost2010Prop43
 90
        3
102
RTVSPost2010PropOp43
 70
     1
102
RTVSPost2010Prop44ColorIndex
 90
        5
102
RTVSPost2010Prop44ColorRGB
 90
      255
102
RTVSPost2010PropOp44
 70
     1
102
RTVSPost2010Prop45
280
     0
102
RTVSPost2010PropOp45
 70
     1
102
RTVSPost2010Prop46
 90
       50
102
RTVSPost2010PropOp46
 70
     1
102
RTVSPost2010Prop47
 90
       50
102
RTVSPost2010PropOp47
 70
     1
102
RTVSPost2010Prop48
 90
       50
102
RTVSPost2010PropOp48
 70
     1
102
RTVSPost2010Prop49
280
     0
102
RTVSPost2010PropOp49
 70
     1
102
RTVSPost2010Prop50
 90
       50
102
RTVSPost2010PropOp50
 70
     1
102
RTVSPost2010Prop51ColorIndex
 90
      256
102
RTVSPost2010Prop51ColorRGB
 90
-16777216
102
RTVSPost2010PropOp51
 70
     0
102
RTVSPost2010Prop52
140
1.0
102
RTVSPost2010PropOp52
 70
     0
102
RTVSPost2010Prop53
 90
        2
102
RTVSPost2010PropOp53
 70
     1
102
RTVSPost2010Prop54
  1
strokes_ogs.tif
102
RTVSPost2010PropOp54
 70
     1
102
RTVSPost2010Prop55
280
     0
102
RTVSPost2010PropOp55
 70
     1
102
RTVSPost2010Prop56
140
1.0
102
RTVSPost2010PropOp56
 70
     1
102
RTVSPost2010Prop57
140
1.0
102
RTVSPost2010PropOp57
 70
     1
  0
XRECORD
  5
1438
102
{ACAD_REACTORS
330
1437
102
}
330
1437
100
AcDbXrecord
280
     1
102
RTVSPost2010Prop28
280
     0
102
RTVSPost2010PropOp28
 70
     1
102
RTVSPost2010Prop29
280
     1
102
RTVSPost2010PropOp29
 70
     1
102
RTVSPost2010Prop30
280
     1
102
RTVSPost2010PropOp30
 70
     1
102
RTVSPost2010Prop31
280
     0
102
RTVSPost2010PropOp31
 70
     1
102
RTVSPost2010Prop32
280
     0
102
RTVSPost2010PropOp32
 70
     1
102
RTVSPost2010Prop33
280
     0
102
RTVSPost2010PropOp33
 70
     1
102
RTVSPost2010Prop34
280
     0
102
RTVSPost2010PropOp34
 70
     1
102
RTVSPost2010Prop35
280
     0
102
RTVSPost2010PropOp35
 70
     1
102
RTVSPost2010Prop36
280
     0
102
RTVSPost2010PropOp36
 70
     1
102
RTVSPost2010Prop37
 90
       50
102
RTVSPost2010PropOp37
 70
     1
102
RTVSPost2010Prop38
140
0.0
102
RTVSPost2010PropOp38
 70
     1
102
RTVSPost2010Prop39
140
1.0
102
RTVSPost2010PropOp39
 70
     1
102
RTVSPost2010Prop40
 90
        0
102
RTVSPost2010PropOp40
 70
     1
102
RTVSPost2010Prop41ColorIndex
 90
      178
102
RTVSPost2010Prop41ColorRGB
 90
        0
102
RTVSPost2010PropOp41
 70
     1
102
RTVSPost2010Prop42
 90
       50
102
RTVSPost2010PropOp42
 70
     1
102
RTVSPost2010Prop43
 90
        3
102
RTVSPost2010PropOp43
 70
     1
102
RTVSPost2010Prop44ColorIndex
 90
        5
102
RTVSPost2010Prop44ColorRGB
 90
      255
102
RTVSPost2010PropOp44
 70
     1
102
RTVSPost2010Prop45
280
     0
102
RTVSPost2010PropOp45
 70
     1
102
RTVSPost2010Prop46
 90
       50
102
RTVSPost2010PropOp46
 70
     1
102
RTVSPost2010Prop47
 90
       50
102
RTVSPost2010PropOp47
 70
     1
102
RTVSPost2010Prop48
 90
       50
102
RTVSPost2010PropOp48
 70
     1
102
RTVSPost2010Prop49
280
     0
102
RTVSPost2010PropOp49
 70
     1
102
RTVSPost2010Prop50
 90
       50
102
RTVSPost2010PropOp50
 70
     1
102
RTVSPost2010Prop51ColorIndex
 90
      256
102
RTVSPost2010Prop51ColorRGB
 90
-16777216
102
RTVSPost2010PropOp51
 70
     0
102
RTVSPost2010Prop52
140
1.0
102
RTVSPost2010PropOp52
 70
     0
102
RTVSPost2010Prop53
 90
        2
102
RTVSPost2010PropOp53
 70
     1
102
RTVSPost2010Prop54
  1
strokes_ogs.tif
102
RTVSPost2010PropOp54
 70
     1
102
RTVSPost2010Prop55
280
     0
102
RTVSPost2010PropOp55
 70
     1
102
RTVSPost2010Prop56
140
1.0
102
RTVSPost2010PropOp56
 70
     1
102
RTVSPost2010Prop57
140
1.0
102
RTVSPost2010PropOp57
 70
     1
  0
XRECORD
  5
1432
102
{ACAD_REACTORS
330
1431
102
}
330
1431
100
AcDbXrecord
280
     1
102
RTVSPost2010Prop28
280
     0
102
RTVSPost2010PropOp28
 70
     1
102
RTVSPost2010Prop29
280
     1
102
RTVSPost2010PropOp29
 70
     1
102
RTVSPost2010Prop30
280
     1
102
RTVSPost2010PropOp30
 70
     1
102
RTVSPost2010Prop31
280
     0
102
RTVSPost2010PropOp31
 70
     1
102
RTVSPost2010Prop32
280
     0
102
RTVSPost2010PropOp32
 70
     1
102
RTVSPost2010Prop33
280
     0
102
RTVSPost2010PropOp33
 70
     1
102
RTVSPost2010Prop34
280
     0
102
RTVSPost2010PropOp34
 70
     1
102
RTVSPost2010Prop35
280
     0
102
RTVSPost2010PropOp35
 70
     1
102
RTVSPost2010Prop36
280
     0
102
RTVSPost2010PropOp36
 70
     1
102
RTVSPost2010Prop37
 90
       50
102
RTVSPost2010PropOp37
 70
     1
102
RTVSPost2010Prop38
140
0.0
102
RTVSPost2010PropOp38
 70
     1
102
RTVSPost2010Prop39
140
1.0
102
RTVSPost2010PropOp39
 70
     1
102
RTVSPost2010Prop40
 90
        0
102
RTVSPost2010PropOp40
 70
     1
102
RTVSPost2010Prop41ColorIndex
 90
      178
102
RTVSPost2010Prop41ColorRGB
 90
        0
102
RTVSPost2010PropOp41
 70
     1
102
RTVSPost2010Prop42
 90
       50
102
RTVSPost2010PropOp42
 70
     1
102
RTVSPost2010Prop43
 90
        3
102
RTVSPost2010PropOp43
 70
     1
102
RTVSPost2010Prop44ColorIndex
 90
        5
102
RTVSPost2010Prop44ColorRGB
 90
      255
102
RTVSPost2010PropOp44
 70
     1
102
RTVSPost2010Prop45
280
     0
102
RTVSPost2010PropOp45
 70
     1
102
RTVSPost2010Prop46
 90
       50
102
RTVSPost2010PropOp46
 70
     1
102
RTVSPost2010Prop47
 90
       50
102
RTVSPost2010PropOp47
 70
     1
102
RTVSPost2010Prop48
 90
       50
102
RTVSPost2010PropOp48
 70
     1
102
RTVSPost2010Prop49
280
     0
102
RTVSPost2010PropOp49
 70
     1
102
RTVSPost2010Prop50
 90
       50
102
RTVSPost2010PropOp50
 70
     1
102
RTVSPost2010Prop51ColorIndex
 90
      256
102
RTVSPost2010Prop51ColorRGB
 90
-16777216
102
RTVSPost2010PropOp51
 70
     0
102
RTVSPost2010Prop52
140
1.0
102
RTVSPost2010PropOp52
 70
     0
102
RTVSPost2010Prop53
 90
        2
102
RTVSPost2010PropOp53
 70
     1
102
RTVSPost2010Prop54
  1
strokes_ogs.tif
102
RTVSPost2010PropOp54
 70
     1
102
RTVSPost2010Prop55
280
     0
102
RTVSPost2010PropOp55
 70
     1
102
RTVSPost2010Prop56
140
1.0
102
RTVSPost2010PropOp56
 70
     1
102
RTVSPost2010Prop57
140
1.0
102
RTVSPost2010PropOp57
 70
     1
  0
XRECORD
  5
1434
102
{ACAD_REACTORS
330
1433
102
}
330
1433
100
AcDbXrecord
280
     1
102
RTVSPost2010Prop28
280
     0
102
RTVSPost2010PropOp28
 70
     1
102
RTVSPost2010Prop29
280
     1
102
RTVSPost2010PropOp29
 70
     1
102
RTVSPost2010Prop30
280
     1
102
RTVSPost2010PropOp30
 70
     1
102
RTVSPost2010Prop31
280
     0
102
RTVSPost2010PropOp31
 70
     1
102
RTVSPost2010Prop32
280
     0
102
RTVSPost2010PropOp32
 70
     1
102
RTVSPost2010Prop33
280
     0
102
RTVSPost2010PropOp33
 70
     1
102
RTVSPost2010Prop34
280
     0
102
RTVSPost2010PropOp34
 70
     1
102
RTVSPost2010Prop35
280
     0
102
RTVSPost2010PropOp35
 70
     1
102
RTVSPost2010Prop36
280
     0
102
RTVSPost2010PropOp36
 70
     1
102
RTVSPost2010Prop37
 90
       50
102
RTVSPost2010PropOp37
 70
     1
102
RTVSPost2010Prop38
140
0.0
102
RTVSPost2010PropOp38
 70
     1
102
RTVSPost2010Prop39
140
1.0
102
RTVSPost2010PropOp39
 70
     1
102
RTVSPost2010Prop40
 90
        0
102
RTVSPost2010PropOp40
 70
     1
102
RTVSPost2010Prop41ColorIndex
 90
      178
102
RTVSPost2010Prop41ColorRGB
 90
        0
102
RTVSPost2010PropOp41
 70
     1
102
RTVSPost2010Prop42
 90
       50
102
RTVSPost2010PropOp42
 70
     1
102
RTVSPost2010Prop43
 90
        3
102
RTVSPost2010PropOp43
 70
     1
102
RTVSPost2010Prop44ColorIndex
 90
        5
102
RTVSPost2010Prop44ColorRGB
 90
      255
102
RTVSPost2010PropOp44
 70
     1
102
RTVSPost2010Prop45
280
     0
102
RTVSPost2010PropOp45
 70
     1
102
RTVSPost2010Prop46
 90
       50
102
RTVSPost2010PropOp46
 70
     1
102
RTVSPost2010Prop47
 90
       50
102
RTVSPost2010PropOp47
 70
     1
102
RTVSPost2010Prop48
 90
       50
102
RTVSPost2010PropOp48
 70
     1
102
RTVSPost2010Prop49
280
     0
102
RTVSPost2010PropOp49
 70
     1
102
RTVSPost2010Prop50
 90
       50
102
RTVSPost2010PropOp50
 70
     1
102
RTVSPost2010Prop51ColorIndex
 90
      256
102
RTVSPost2010Prop51ColorRGB
 90
-16777216
102
RTVSPost2010PropOp51
 70
     0
102
RTVSPost2010Prop52
140
1.0
102
RTVSPost2010PropOp52
 70
     0
102
RTVSPost2010Prop53
 90
        2
102
RTVSPost2010PropOp53
 70
     1
102
RTVSPost2010Prop54
  1
strokes_ogs.tif
102
RTVSPost2010PropOp54
 70
     1
102
RTVSPost2010Prop55
280
     0
102
RTVSPost2010PropOp55
 70
     1
102
RTVSPost2010Prop56
140
1.0
102
RTVSPost2010PropOp56
 70
     1
102
RTVSPost2010Prop57
140
1.0
102
RTVSPost2010PropOp57
 70
     1
  0
XRECORD
  5
1424
102
{ACAD_REACTORS
330
1423
102
}
330
1423
100
AcDbXrecord
280
     1
102
RTVSPost2010Prop28
280
     0
102
RTVSPost2010PropOp28
 70
     1
102
RTVSPost2010Prop29
280
     1
102
RTVSPost2010PropOp29
 70
     1
102
RTVSPost2010Prop30
280
     1
102
RTVSPost2010PropOp30
 70
     1
102
RTVSPost2010Prop31
280
     0
102
RTVSPost2010PropOp31
 70
     1
102
RTVSPost2010Prop32
280
     0
102
RTVSPost2010PropOp32
 70
     1
102
RTVSPost2010Prop33
280
     0
102
RTVSPost2010PropOp33
 70
     1
102
RTVSPost2010Prop34
280
     0
102
RTVSPost2010PropOp34
 70
     1
102
RTVSPost2010Prop35
280
     0
102
RTVSPost2010PropOp35
 70
     1
102
RTVSPost2010Prop36
280
     0
102
RTVSPost2010PropOp36
 70
     1
102
RTVSPost2010Prop37
 90
       50
102
RTVSPost2010PropOp37
 70
     1
102
RTVSPost2010Prop38
140
0.0
102
RTVSPost2010PropOp38
 70
     1
102
RTVSPost2010Prop39
140
1.0
102
RTVSPost2010PropOp39
 70
     1
102
RTVSPost2010Prop40
 90
        0
102
RTVSPost2010PropOp40
 70
     1
102
RTVSPost2010Prop41ColorIndex
 90
      178
102
RTVSPost2010Prop41ColorRGB
 90
        0
102
RTVSPost2010PropOp41
 70
     1
102
RTVSPost2010Prop42
 90
       50
102
RTVSPost2010PropOp42
 70
     1
102
RTVSPost2010Prop43
 90
        3
102
RTVSPost2010PropOp43
 70
     1
102
RTVSPost2010Prop44ColorIndex
 90
        5
102
RTVSPost2010Prop44ColorRGB
 90
      255
102
RTVSPost2010PropOp44
 70
     1
102
RTVSPost2010Prop45
280
     0
102
RTVSPost2010PropOp45
 70
     1
102
RTVSPost2010Prop46
 90
       50
102
RTVSPost2010PropOp46
 70
     1
102
RTVSPost2010Prop47
 90
       50
102
RTVSPost2010PropOp47
 70
     1
102
RTVSPost2010Prop48
 90
       50
102
RTVSPost2010PropOp48
 70
     1
102
RTVSPost2010Prop49
280
     0
102
RTVSPost2010PropOp49
 70
     1
102
RTVSPost2010Prop50
 90
       50
102
RTVSPost2010PropOp50
 70
     1
102
RTVSPost2010Prop51ColorIndex
 90
      256
102
RTVSPost2010Prop51ColorRGB
 90
-16777216
102
RTVSPost2010PropOp51
 70
     0
102
RTVSPost2010Prop52
140
1.0
102
RTVSPost2010PropOp52
 70
     0
102
RTVSPost2010Prop53
 90
        2
102
RTVSPost2010PropOp53
 70
     1
102
RTVSPost2010Prop54
  1
strokes_ogs.tif
102
RTVSPost2010PropOp54
 70
     1
102
RTVSPost2010Prop55
280
     0
102
RTVSPost2010PropOp55
 70
     1
102
RTVSPost2010Prop56
140
1.0
102
RTVSPost2010PropOp56
 70
     1
102
RTVSPost2010Prop57
140
1.0
102
RTVSPost2010PropOp57
 70
     1
  0
XRECORD
  5
1416
102
{ACAD_REACTORS
330
1415
102
}
330
1415
100
AcDbXrecord
280
     1
102
RTVSPost2010Prop28
280
     0
102
RTVSPost2010PropOp28
 70
     1
102
RTVSPost2010Prop29
280
     1
102
RTVSPost2010PropOp29
 70
     1
102
RTVSPost2010Prop30
280
     1
102
RTVSPost2010PropOp30
 70
     1
102
RTVSPost2010Prop31
280
     0
102
RTVSPost2010PropOp31
 70
     1
102
RTVSPost2010Prop32
280
     0
102
RTVSPost2010PropOp32
 70
     1
102
RTVSPost2010Prop33
280
     0
102
RTVSPost2010PropOp33
 70
     1
102
RTVSPost2010Prop34
280
     0
102
RTVSPost2010PropOp34
 70
     1
102
RTVSPost2010Prop35
280
     0
102
RTVSPost2010PropOp35
 70
     1
102
RTVSPost2010Prop36
280
     0
102
RTVSPost2010PropOp36
 70
     1
102
RTVSPost2010Prop37
 90
       50
102
RTVSPost2010PropOp37
 70
     1
102
RTVSPost2010Prop38
140
0.0
102
RTVSPost2010PropOp38
 70
     1
102
RTVSPost2010Prop39
140
1.0
102
RTVSPost2010PropOp39
 70
     1
102
RTVSPost2010Prop40
 90
        0
102
RTVSPost2010PropOp40
 70
     1
102
RTVSPost2010Prop41ColorIndex
 90
      178
102
RTVSPost2010Prop41ColorRGB
 90
        0
102
RTVSPost2010PropOp41
 70
     1
102
RTVSPost2010Prop42
 90
       50
102
RTVSPost2010PropOp42
 70
     1
102
RTVSPost2010Prop43
 90
        3
102
RTVSPost2010PropOp43
 70
     1
102
RTVSPost2010Prop44ColorIndex
 90
        5
102
RTVSPost2010Prop44ColorRGB
 90
      255
102
RTVSPost2010PropOp44
 70
     1
102
RTVSPost2010Prop45
280
     0
102
RTVSPost2010PropOp45
 70
     1
102
RTVSPost2010Prop46
 90
       50
102
RTVSPost2010PropOp46
 70
     1
102
RTVSPost2010Prop47
 90
       50
102
RTVSPost2010PropOp47
 70
     1
102
RTVSPost2010Prop48
 90
       50
102
RTVSPost2010PropOp48
 70
     1
102
RTVSPost2010Prop49
280
     0
102
RTVSPost2010PropOp49
 70
     1
102
RTVSPost2010Prop50
 90
       50
102
RTVSPost2010PropOp50
 70
     1
102
RTVSPost2010Prop51ColorIndex
 90
      256
102
RTVSPost2010Prop51ColorRGB
 90
-16777216
102
RTVSPost2010PropOp51
 70
     0
102
RTVSPost2010Prop52
140
1.0
102
RTVSPost2010PropOp52
 70
     0
102
RTVSPost2010Prop53
 90
        2
102
RTVSPost2010PropOp53
 70
     1
102
RTVSPost2010Prop54
  1
strokes_ogs.tif
102
RTVSPost2010PropOp54
 70
     1
102
RTVSPost2010Prop55
280
     0
102
RTVSPost2010PropOp55
 70
     1
102
RTVSPost2010Prop56
140
1.0
102
RTVSPost2010PropOp56
 70
     1
102
RTVSPost2010Prop57
140
1.0
102
RTVSPost2010PropOp57
 70
     1
  0
XRECORD
  5
1436
102
{ACAD_REACTORS
330
1435
102
}
330
1435
100
AcDbXrecord
280
     1
102
RTVSPost2010Prop28
280
     0
102
RTVSPost2010PropOp28
 70
     1
102
RTVSPost2010Prop29
280
     1
102
RTVSPost2010PropOp29
 70
     1
102
RTVSPost2010Prop30
280
     1
102
RTVSPost2010PropOp30
 70
     1
102
RTVSPost2010Prop31
280
     0
102
RTVSPost2010PropOp31
 70
     1
102
RTVSPost2010Prop32
280
     0
102
RTVSPost2010PropOp32
 70
     1
102
RTVSPost2010Prop33
280
     0
102
RTVSPost2010PropOp33
 70
     1
102
RTVSPost2010Prop34
280
     0
102
RTVSPost2010PropOp34
 70
     1
102
RTVSPost2010Prop35
280
     0
102
RTVSPost2010PropOp35
 70
     1
102
RTVSPost2010Prop36
280
     0
102
RTVSPost2010PropOp36
 70
     1
102
RTVSPost2010Prop37
 90
       50
102
RTVSPost2010PropOp37
 70
     1
102
RTVSPost2010Prop38
140
0.0
102
RTVSPost2010PropOp38
 70
     1
102
RTVSPost2010Prop39
140
1.0
102
RTVSPost2010PropOp39
 70
     1
102
RTVSPost2010Prop40
 90
        0
102
RTVSPost2010PropOp40
 70
     1
102
RTVSPost2010Prop41ColorIndex
 90
      178
102
RTVSPost2010Prop41ColorRGB
 90
        0
102
RTVSPost2010PropOp41
 70
     1
102
RTVSPost2010Prop42
 90
       50
102
RTVSPost2010PropOp42
 70
     1
102
RTVSPost2010Prop43
 90
        3
102
RTVSPost2010PropOp43
 70
     1
102
RTVSPost2010Prop44ColorIndex
 90
        5
102
RTVSPost2010Prop44ColorRGB
 90
      255
102
RTVSPost2010PropOp44
 70
     1
102
RTVSPost2010Prop45
280
     0
102
RTVSPost2010PropOp45
 70
     1
102
RTVSPost2010Prop46
 90
       50
102
RTVSPost2010PropOp46
 70
     1
102
RTVSPost2010Prop47
 90
       50
102
RTVSPost2010PropOp47
 70
     1
102
RTVSPost2010Prop48
 90
       50
102
RTVSPost2010PropOp48
 70
     1
102
RTVSPost2010Prop49
280
     0
102
RTVSPost2010PropOp49
 70
     1
102
RTVSPost2010Prop50
 90
       50
102
RTVSPost2010PropOp50
 70
     1
102
RTVSPost2010Prop51ColorIndex
 90
      256
102
RTVSPost2010Prop51ColorRGB
 90
-16777216
102
RTVSPost2010PropOp51
 70
     0
102
RTVSPost2010Prop52
140
1.0
102
RTVSPost2010PropOp52
 70
     0
102
RTVSPost2010Prop53
 90
        2
102
RTVSPost2010PropOp53
 70
     1
102
RTVSPost2010Prop54
  1
strokes_ogs.tif
102
RTVSPost2010PropOp54
 70
     1
102
RTVSPost2010Prop55
280
     0
102
RTVSPost2010PropOp55
 70
     1
102
RTVSPost2010Prop56
140
1.0
102
RTVSPost2010PropOp56
 70
     1
102
RTVSPost2010Prop57
140
1.0
102
RTVSPost2010PropOp57
 70
     1
  0
ENDSEC
  0
EOF
